Song name
# A B C D E F G H I J K L M N O P Q R S T U V W X Y Z

Joe Bonamassa - Ball Peen Hammer tab

it's only the first couple of bars but it is much the samethroughout the entire song. 
it's right. enjoy.


e|----3---3---3----------3-3-3---|
B|---3-3-3-3-3-3---------3-3-3---|
G|-------------------------------|
D|--------------3-3------------3-|
A|--5----3---2---5-5-3-5-------5-|
E|-------------------------------|

e|----3---3---3----3--|
B|---3-3-3-3-3-3--3-3-|
G|--------------------|
D|-------------------3|
A|--5----3---2--------|
E|--------------------|

play this last bit twice through
and thats it. easy.
Tap to rate this tab
# A B C D E F G H I J K L M N O P Q R S T U V W X Y Z