Song name
# A B C D E F G H I J K L M N O P Q R S T U V W X Y Z

Joe Dassin - A Toi tab

                                    A Toi                                       


Joe Dassin
Fingerstyle guitar



     E  E  E  E  E  E  E  E     E  E  E  E  E  E  E  E   
E||--------------------------|--------------------------|
B||--1-----1--0--L-----0-----|-----1--3--5--3--1--0-----|
G||-----------------------2--|--L--------------------2--|
D||-----2-----------2--------|--------------------------|
A||--0--------0--0-----------|--0--------0--0-----------|
E||--------------------------|--------------------------|


  E  E  E  E  E  E  E  E     E  E  E  E  E  E  E  E   
--1-----1--0--L-----0-----|-----------1--0-----------|
-----------------------3--|--L--3--5--------3--1--3--|
-----2-----------2--------|--------------------------|
--0-----------0--0--------|--0--------0--0-----------|
--------------------------|--------------------------|
--------------------------|--------------------------|


  E  E  E  E  E  E  E  E     E  E  E  E  E  E  E  E   
--------------------------|--------------3--1--0-----|
--0-----0-----------------|--------0--3-----------3--|
-----------2--L-----2--0--|--L--0--------------------|
-----0-----------0--------|--------------------------|
--------------------------|--------------------------|
--3--------3--3-----------|--3--------3--3-----------|


  E  E  E  E  E  E  E  E     E  E  E  E  E  E  E  E   
--0--------0--1--0--------|--------------0-----------|
--------1-----------3--1--|--3--------0-----3--1--0--|
-----0--------------------|--------1-----------------|
--------------------------|-----2--------------------|
--3--------3--3-----------|--------------------------|
--------------------------|--0--------0--0--0--2--4--|


    E  E  E  E  E  E  E  E     E  E  E  E  E  E  E  E   
|---------------------------|--------------------------|
|---1-----1--0--L-----0-----|-----1--3--5--3--1--------|
|*-----------------------2--|--L-----------------4--2--|
|*-----2-----------2--------|--------------------------|
|---0--------0--0-----------|--0--------0--0-----------|
|---------------------------|--------------------------|


  E  E  E  E  E  E  E  E     E  E  E   E  E  E  E  E   
--------------------------|---------------------------|
--6-----6--5--L-----5-----|---------------------------|
-----------------------7--|--L--7--9--10--9--7--5--7--|
--3--7-----0--0--7--------|--0------------------------|
--5-----------------------|---------------------------|
--------------------------|---------------------------|


  E  E  E  E  E  E  E  E     E  E  E  E  E  E  E  E   
--------------------------|--------------------------|
--0-----0-----------------|--------0--------6--5--3--|
-----------2--------2--0--|-----0-----7--0-----------|
-----0-----------0--------|--------------------------|
--------------------------|--------------------------|
--0-----------0-----------|--3-----------3-----------|


  E  E  E  E  E  E  E  E     E  E  E  E  E  E  E  E   
--0--------0--1--0--------|--------------0-----------|
--------1-----------3--1--|--3--------0-----3--1--0--|
-----0--------------------|--------1-----------------|
--------------------------|-----2--------------------|
--3--------3--3-----------|--------------------------|
--------------------------|--0--------0--0--0--2--4--|


  E  E  E  E  E  E  E  E     E  E  E  E  E  E  E  E   
--------------------------|--------------------------|
--1-----1--0--L-----0-----|-----1--3--5--3--1--------|
-----------------------2--|--L-----------------4--2--|
-----2-----------2--------|--------------------------|
--0--------0--0-----------|--0--------0--0-----------|
--------------------------|--------------------------|


  E  E  E  E  E  E  E  E     E  E  E  E  E  E  E  E   
--1-----1--0--L-----0-----|--------0--1--0-----------|
-----------------------3--|-----3-----------3--1--3--|
-----2-----------2--------|--------------------------|
--0-----------------------|--0--------0--0-----------|
--------------------------|--------------------------|
--------------------------|--------------------------|


  E  E  E  E  E  E  E  E     E  E  E  E  E  E  E  E   
--0--1--1--L--------------|--------------3--1--0-----|
--0-----0-----------------|--------0--3-----------3--|
-----------2--L-----2--0--|--L--0--------------------|
-----0-----------0--------|--------------------------|
--------------------------|--------------------------|
--3-----------------------|--3--------3--3-----------|


  E  E  E  E  E  E  E  E     E  E  E  E  E  E  E  E   
--0--------0--1--0--------|--------------0-----------|
--------1-----------3--1--|--3--------0-----3--1--0--|
-----0--------------------|--------1-----------------|
--------------------------|-----2--------------------|
--3--------3--3-----------|--------------------------|
--------------------------|--0--------0--0--0--2--4--|


  E  E  E  E  E  E  E  S S    E  E  E  E  E  E  E  S S  
---------------------------|---------------------------|
--1--0--L------------------|--1--0--L------------------|
-----------2--2--------2-4-|-----------2--2--------1-2-|
--2--0--L------------------|--2--0--L------------------|
-----------3--3--------3-5-|-----------3--3--------2-3-|
--5--L--5--L--5--L--5------|--5--L--5--L--5--L--5------|


  E  E  E  E  E  E  E  E     Q    Q    Q    E  S S    E  E  E  E  E  E  E  S S  
--------------------------|------------------------|---------------------------|
--0--------------------0--|--3----1--------------0-|--1--0--L------------------|
-----2--L--1--1-----2-----|--------------------2---|-----------2--2--------2-4-|
--0--------------------0--|--3----2--------------0-|--2--0--L------------------|
-----3--L--2--2-----3-----|--0----0----0----0--3---|-----------3--3--------3-5-|
--0--L--0--L--0--L--0--L--|------------------------|--5--L--5--L--5--L--5------|


  E  E  E  E  E  E  E  S S    E  E  E  E  E  E  E  E     Q    Q    Q    Q     
---------------------------|--------------------------|------------0---------|
--1--0--L------------------|--0-----------------------|----------------------|
-----------2--2--------0-2-|-----------2--0-----0-----|----------------------|
--2--0--L------------------|--0--------------0-----3--|--2----L----2----L----|
-----------3--3--------2-3-|-----------3--2--2--2--0--|----------------------|
--5--L--5--L--5--L--5------|--3--L--3--L--3--L--3--1--|--4----0----0----0----|


  E  E  E  E  E  E  E  E     E  E  E  E  E  E  E  E   
--------------------------|--------------------------|
-----------0--3--1--0-----|--1-----1--0--L-----0-----|
--------1--------------2--|-----------------------2--|
-----2--------------------|-----2-----------2--------|
--------------------------|--0--------0--0-----------|
--0--L--0--L--0--0--2--4--|--------------------------|


  E  E  E  E  E  E  E  E     E  E  E  E  E  E  E  E   
--------------------------|--------------------------|
-----1--3--5--3--1--------|--6-----6--5--L-----5-----|
--L-----------------4--2--|-----------------------7--|
--------------------------|--3--7-----0--0--7--------|
--0--------0--0-----------|--5-----------------------|
--------------------------|--------------------------|


  E  E  E   E  E  E  E  E     E  E  E  E  E  E  E  E   
---------------------------|--------------------------|
---------------------------|--0-----0-----------------|
--L--7--9--10--9--7--5--7--|-----------2--------2--0--|
--0------------------------|-----0-----------0--------|
---------------------------|--------------------------|
---------------------------|--0-----------0-----------|


  E  E  E  E  E  E  E  E     E  E  E  E  E  E  E  E   
--------------------------|--0--------0--1--0--------|
--------0--------6--5--3--|--------1-----------3--1--|
-----0-----7--0-----------|-----0--------------------|
--------------------------|--------------------------|
--------------------------|--3--------3--3-----------|
--3-----------3-----------|--------------------------|


  E  E  E  E  E  E  E  E       E  E  E  E  E  E  E  E   
--------------0------------||--------------------------|
--3--------0-----3--1--0---||--1-----1--0--L-----0-----|
--------1-----------------*||-----------------------2--|
-----2--------------------*||-----2-----------2--------|
---------------------------||--0--------0--0-----------|
--0--------0--0--0--2--4---||--------------------------|


  E  E  E  E  E  E  E  E     E  E  E  E  E  E  E  E   
--------------------------|--1-----1--0--L-----0-----|
-----1--3--5--3--1--------|-----------------------3--|
--L-----------------4--2--|-----2-----------2--------|
--------------------------|--0-----------------------|
--0--------0--0-----------|--------------------------|
--------------------------|--------------------------|


  E  E  E  E  E  E  E  E     E  E  E  E  E  E  E  E   
--------0--1--0-----------|--0--1--1--L--------------|
-----3-----------3--1--3--|--0-----0-----------------|
--------------------------|-----------2--L-----2--0--|
--0--------0--0-----------|-----0-----------0--------|
--------------------------|--------------------------|
--------------------------|--3-----------------------|


  E  E  E  E  E  E  E  E     E  E  E  E  E  E  E  E   
--------------3--1--0-----|--0--------0--1--0--------|
--------0--3-----------3--|--------1-----------3--1--|
--L--0--------------------|-----0--------------------|
--------------------------|--------------------------|
--------------------------|--3--------3--3-----------|
--3--------3--3-----------|--------------------------|


  E  E  E  E  E  E  E  E     W                  
--------------0-----------|-------------------||
--3--------0-----3--1--0--|--1----------------||
--------1-----------------|-------------------||
-----2--------------------|-------------------||
--------------------------|-------------------||
--0--------0--0--0--2--4--|--5----------------||




Duration Legend
---------------
W - whole
H - half
Q - quarter
E - 8th
S - 16th
T - 32nd
X - 64th
. - note dotted
|-n-|  - n-tuplets


Tablature Legend
----------------
L - tied note
x - dead note
g - grace note
(n) - ghost note
> - accentuded note
NH - natural harmonic
AH - artificial harmonic
TH - tapped harmonic
SH - semi harmonic
PH - pitch harmonic
h - hammer on
p - pull off
b - bend
br - bendRelease
pb - preBend
pbr - preBendRelease
brb - bendReleaseBend
\n/ - tremolo bar dip
\n - tremolo bar dive
-/n - tremolo bar Release up
/n\ - tremolo bar inverted dip
/n - tremolo bar return
-\n - tremolo bar Release down
S - shift slide
s - legato slide
/ -  slide into from below or out of upwards
\ -  slide into from above or out of downwards
~ - vibrato
W - wide vibrato
tr - trill
TP - tremolo picking
T - tapping
S - slap
P - pop
< - fade in
^ - brush up
v - brush down
Tap to rate this tab
 
# A B C D E F G H I J K L M N O P Q R S T U V W X Y Z