Song name
# A B C D E F G H I J K L M N O P Q R S T U V W X Y Z

Joe Lynn Turner - Power Of Love tab

 #----------------------------------PLEASE NOTE--------------------------------#
#This file is the author's own work and represents their interpretation of the#
#song. You may only use this file for private study, scholarship, or research.#
#-----------------------------------------------------------------------------#
#-- File created with Instab - http://www.pconline.com/~smcarey/instab.html --#
#-----------------------------------------------------------------------------#

Author/Artist: Huey Lewis & The News
Title: Power Of Love
Transcribed by: Saverain
d strum down
u strum up
h hammer on
p pull off
/ slide up
\ slide down
b bend
r release bend
v vibrato

Standard Tuning

--------|---------------------------------|-----------------------------------|
--------|-----------------1-1-1-3-3-3-3-3-|-----------------------------------|
--------|-5-5-5-----------2-2-2-4-4-4-4-4-|-----------------------------------|
--------|-5-5-5-2-2-2-2-2-3-3-3-5-5-5-5-5-|-----------------------------------|
--------|-3-3-3-3-3-3-3-3-3-3-3-5-5-5-5-5-|-----------------------------------|
--------|-0-0-0-0-0-0-0-0-1-1-1-3-3-3-3-5-|-----------------------------------|
   Intro  d Top thre strings palm muted


--------|-----------------------------|---------------------------------------|
--------|-----------------1-1-1-3-3---|---------------------------------------|
--------|-5-5-5-----------2-2-2-4-4---|---------------------------------------|
--------|-5-5-5-2-2-2-2-2-3-3-3-5-5---|---------------------------------------|
--------|-3-3-3-3-3-3-3-3-3-3-3-5-5---|---------------------------------------|
--------|-0-0-0-0-0-0-0-0-1-1-1-3-3---|---------------------------------------|


--------|--------------------------------------------------------|------------|
--------|---------4-3-3-6--6--4-3------------4-3-3-6--6--4---3---|------------|
--------|-----3---3-3-3-5--5--3-3--5-----3---3-3-3-5--5--3---3---|------------|
--------|--------------------------5-----------------------------|------------|
--------|-3-3---3--------------------3-3---3---------------------|------------|
--------|--------------------------------------------------------|------------|
          d u d u d u d d  u  d u  d                     d   d


--------|-----------------------------|---------------------------------------|
--------|---------4-3-3-6--6--4-4-3-3-|---------------------------------------|
--------|-----3---3-3-3-5--5--3-3-3-3-|---------------------------------------|
--------|---------------------5-5-5-5-|---------------------------------------|
--------|-3-3---3---------------------|---------------------------------------|
--------|-----------------------------|---------------------------------------|
                              d d d d


--------|---------------------------------|-----------------------------------|
--------|---------------------------------|-----------------------------------|
--------|---------------------------------|-----------------------------------|
--------|-5-5-5-2-2-2-2-2-----------------|-----------------------------------|
--------|-3-3-3-3-3-3-3-3-3-3-3-5-5-5-5-5-|-----------------------------------|
--------|-0-0-0-0-0-0-0-0-1-1-1-3-3-3-3-3-|-----------------------------------|
  Chours Palm Muted d

--------|--------------------------------------|------------------------------|
--------|--------------------------------------|------------------------------|
--------|--------------------------------------|------------------------------|
--------|-3-3-3-3------------------------------|------------------------------|
--------|-1-1-1-1-3-3-3-3-5-5-5-5-5-5-5-5-5----|------------------------------|
--------|---------1-1-1-1-3-3-3-3-3-3-3-3-3----|------------------------------|
  Chorus Out P.M...........................

------|-3---1----3------------15--------------3---------------3--3--3--3--3--|
------|-4---x----4----------------------------4-----------4---4--4--4--4--4--|
------|-3---x----3------------------5---------x-----3-----x------------------|
------|-----x----x---------13-------x---------5-----5-----5------------------|
------|-----5----2------13----------6---------3-----3-----3------------------|
------|-----3--------11-------------4----------------------------------------|
Interlude                           >Nothing<

--------|-14b15vv---14b15-13vv-11---------------------------------------------|
--------|-------------------------13-\----------------------------------------|
--------|---------------------------------------------------------------------|
--------|-------------------------------8h10vvv\-8h10vvv--10-8----------------|
--------|------------------------------------------------------10-8-6-8-8h10p-|
--------|---------------------------------------------------------------------|
   Solo

------------------------------------------------------------------------8-6---|
--------------------------6-7b8r7--7b8r7-6b7r6---------------4-6b7r6--6-----8-|
------------------------8-----------------------8-------3h5-------------------|
-------------------8-10---------------------------10\-------------------------|
-8--6---------8-10------------------------------------------------------------|
------8\----8-----------------------------------------------------------------|


------------------------------------------------------------------------------|
-6-8--6b7r6----6------------------------------------------7b8-r7-7-7-7b8vv----|
------------8----8------8---------5p3----------0-3-5-8-10---------------------|
-------------------10-8---10-8/10-----5-3-3/5---------------------------------|
------------------------------------------------------------------------------|
------------------------------------------------------------------------------|
                                               P.M......

--------7br-7br------7br-7br-----7br-7br-8-----8-8b9r8-------|-----8-8-|--|---|
------8---------7br----------7br---------8-7br-8-8b9r8-8-7-7-|-7br-8-8-|--|---|
-8h10--------------------------------------------------------|---------|--|---|
-------------------------------------------------------------|---------|4x|---|
-------------------------------------------------------------|---------|--|---|
-------------------------------------------------------------|---------|--|---|

-8-------------------------------|-------------|------------------------------|
-8-6-6b7r6-6-4-------------------|-------------|------------------------------|
---------------5-3-0-3-5b6r5-vvv-|-------------|------------------------------|
---------------------------------|-------------|------------------------------|
---------------------------------|-------------|------------------------------|
---------------------------------|-------------|------------------------------|
                                   Chorus Riff

------\-|--------------------------------|-/----------------------------------|
------/-|----------4-3-x-6--6-x-x-4-3----|-\----------------------------------|
------\-|--5-5-3-5-3-3-x-5--5-x-x-3-3--5-|-/----------------------------------|
------/-|--5-5-3-5-----x-3--3-x-x------5-|-\----------------------------------|
------\-|--3-3-3-3-----------------------|-/----------------------------------|
------/-|--------------------------------|-\----------------------------------|
     This is another way to play verse
Tap to rate this tab
 
# A B C D E F G H I J K L M N O P Q R S T U V W X Y Z