Song name
# A B C D E F G H I J K L M N O P Q R S T U V W X Y Z

Joe Perry - Talk Talkin tab

Song - Talk Talkin
Artist - Joe Perry
Album - Joe Perry
Year - 2005
Tuning - EADGBe (Standard)
Tabbed by classicrockboy

|--------------|------------------|---------------|
|-10~~~~~~~~~~-|------------------|---------------|
|--------------|------------------|-7b8r7-5-7-5---|
|--------------|------------------|-------------7-|
|--------------|-0---0---0--0-0-0-|---------------|
|--------------|------------------|---------------|
              
|-----------------------------|---------------|
|-----------------------------|---------------|
|-8---8-8-8-8-8-8-8-8-8-8-8-8-|-7b8r7-5-7-5---|
|-8/9-9-9-9-9-9-9-9-9-9-9-9-9-|-------------7-|
|-----------------------------|---------------|
|-----------------------------|---------------|

Very easy song for the most part. I might add some more later.

Tap to rate this tab
# A B C D E F G H I J K L M N O P Q R S T U V W X Y Z