Song name
# A B C D E F G H I J K L M N O P Q R S T U V W X Y Z

Joe Pug - Hymn 35 tab

This is repeated throughout the song, pretty simple

capo 2

 C
|---------------------------|
|-1--------1----1--------1--|
|---2-------2-----2-------2-|       
|---------------------------|      x2
|-3-------------3-----------|
|---------------------------|


  Am                       F
|------------------------------------------------|
|-1-------1---1--------1-----1--------1----1-----|
|---2------2----2-------2------2-------2-----2---|
|----------------------------3-------------3-----|
|-0-----------0----------------------------------|
|------------------------------------------------|
Tap to rate this tab
# A B C D E F G H I J K L M N O P Q R S T U V W X Y Z