Guitaretab - guitar tabs
Song name
# A B C D E F G H I J K L M N O P Q R S T U V W X Y Z

Joe Satriani - Flying In A Blue Dream tab

Csus2
E---------2--2--0-0----|
B---------3--3--1-1----|
G------0--0--0--0-0----|
D---------0--0---------|
A---3-----3--3---------|
E----------------------|

Absus2
E----------------------|
B-------4-4--4-4-------|
G----3--7-7--5-5-------|
D---1---8-8--6-6-------|
A----------------------|
E--4-------------------|

Gsus2
E----------------------|
B-------3-3--3-3-------|
G----2--6-6--4-4-------|
D---0---7-7--5-5-------|
A----------------------|
E--3-------------------|

Fsus2
E----------------------|
B-------0-0--1-1-------|
G----0--5-5--2-2-------|
D---3---5-5--3-3-------|
A----------------------|
E--1-------------------|
[ Tab from: http://www.guitaretab.com/j/joe-satriani/33391.html ]
Gm11
E----------------------|
B-------1--------------|
G----3--2--------------|
D---3------------------|
A----------------------|
E--3-------------------|

Outro
E----------------------------2-5-5--8--8-------------------------0-|
B--------------------------3--------8--8-------------------------1-|
G------------------------2----------5--0-------------------------0-|
D--------------------0-4------------5--10--------------------------|
A-3---3---3---3----3---------------------------------------------3-|
E---3---3---3---3--------------------------------------------------|


Order:

Csus2 x 11
Absus2 x 2
Csus2 x 2
Gsus2 x 1
Fsus2 x 1
Csus2 x 8
Absus2 x 2
Csus2 x 6
Absus2 x 1
Fsus2 x 1
Csus2 x 2
Gm11 x 1
Csus2 x 1
Gm11 x 1
Csus2 x 1
Gm11 x 1
Csus2 x 1
Gm11 x 1
Csus2 x 6
Absus2 x 1
Csus2 x 2
Gsus2 x 1
Fsus2 x 1
Csus2 x 2
Gsus2 x 1
Fsus2 x 1
Csus2 x 8
Outro
Related for Flying In A Blue Dream tab
Advertisement will be closed in 10 seconds