Song name
# A B C D E F G H I J K L M N O P Q R S T U V W X Y Z

Joe Satriani - Redshift Riders tab

e|-------2-2-2-2--3--2h3p2p0---------------2-2-2-2--0-----------------|
B|-------2-2-2-2--3---------2h3p2p0--------2-2-2-2--0--2h3p2p0--------|
G|------------------------------------------------------------2h4p2p0-|
D|----4---------2----------------------4-----------2------------------|
A|--------------------------------------------------------------------|
D|--------------------------------------------------------------------|
                                  Repeat 4x

e|--------------------------------------------------------------------|
B|--------------------------------------------------------------------|
G|--------------------------------------------------------------------|
D|---4-4-2-4----4-2-4--2-2--------------------------------------------|
A|---4-4-2-4----4-2-4--2-2--------------------------------------------|
D|---2-2-0-2----2-0-2--0-0--------------------------------------------|
                                   Repeat 4x 

e|----------------12--------------------------------------------------|
B|-----\14--12---------14p12h14---(14/)-------------------------------|
G|-11~~~-----------------------------------11hh12p11/9----------------|
D|-------------------------------------------------------4------4-----|
A|-------------------------------------------------------4h5p4--4-----|
D|-------------------------------------------------------------7------|
                 * Pull Trem Randomly while Pinching
e|--------------------------------------------------------------------|
B|-------------------^--^---------------_-----------------------------|
G|---------------*P.H11----\16~~~~---13/-\(13)------------------------|
D|-(4)-/2-------------------------14-----------14---------------------|
A|-(4)-/2----------------------------------------14-------------------|
D|--------(0)---------------------------------------------------------|

Tap to rate this tab
 
# A B C D E F G H I J K L M N O P Q R S T U V W X Y Z