Song name
# A B C D E F G H I J K L M N O P Q R S T U V W X Y Z

Joe Stump - Demons Eye tab

Hello rockers, I'm new here, I registered yesterday, my name is Daniel and
I'm male. I only used this website for tabs to play, but now I'll post
everything for you and the community. I'm only 15 and this is my first
tablature.

This is the Joe Stump's main Scale, used in Demon's Eye. You have to tune
your guitar half-step down. I know, this is pointless, I did it to share something with 
guys.
Have fun and don't kill me if it sucks xD

Here's the Scale

|------------------------------------------10-12-13-15-17-18----------------|
|-------------------------------9-10-12-13-------------------18-17-15-13-12-|
|------------------------7-9-10---------------------------------------------|
|---------------6-7-9-10----------------------------------------------------|
|---------5-7-8-------------------------------------------------------------|
|-4-5-7-8-------------------------------------------------------------------|

---------------------------------------------------------------------------|
-10-9----------------------------------------------------------------------|
------10-9-7---------------------------------------------------------------|
-------------10-9-7-6------------------------------------------------------|
----------------------8-7-5------------------------------------------------|
----------------------------8-7-5-4----------------------------------------|


And here's a Solo I made for you

~ = Vibrato
h = Hammer On
p = Pull Off

|---------------------------------------------------------------------------|
|---------------------------------9----9-10~----13-12-13-10-12-10-9-10-9----|
|--------7-9-7----7-9-10-9-7-9-10---10-----------------------------------10-|
|-7-9-10-------10-----------------------------------------------------------|
|---------------------------------------------------------------------------|
|---------------------------------------------------------------------------|

---------------------------------------------------------------------------|
-9--------------------------------------------------9----9-10~----13-12-13-|
---10-9-10-9-7-9~----------7-9-7----7-9-10-9-7-9-10---10-------------------|
--------------------7-9-10-------10----------------------------------------|
---------------------------------------------------------------------------|
---------------------------------------------------------------------------|

----------------------------------------------------------------------------|
-10-12-10-9-10-9----9-------------------------------------------------------|
-----------------10---10-9-10-9-7-9~------------7-9-10~---9~---------7-9-10-|
-----------------------------------------7-9-10---------------7-9-10--------|
----------------------------------------------------------------------------|
----------------------------------------------------------------------------|

----------------------------------------------------------------------------|
-----------------------------------------------13-12-13-10-12-10-9-10-9-----|
-10-7-9~------------7-9-10~---9~----------7-9---------------------------10--|
-------------7-9-10----------------7-9-10-----------------------------------|
----------------------------------------------------------------------------|
----------------------------------------------------------------------------|

----------------------------------------------------------------------------|
-9--------------------------------------------------------------------------|
---10-9-10-9-7-9~---------------7-9-10~---9~---------7-9-10-10-7-9~---------|
-------------------------7-9-10---------------7-9-10--------------------7-9-|
----------------------------------------------------------------------------|
----------------------------------------------------------------------------|
----------------------------------------------------------------------------|

--------------------------------------------------------------10-12----10---|
----------------------------------------9----9-10-12-10-12-13-------13------|
----7-9-10~---9~------------7-10-7-9-10---10--------------------------------|
-10------------------7-9-10-------------------------------------------------|
----------------------------------------------------------------------------|
----------------------------------------------------------------------------|

-12-13~----13-12-13-10-13----13----13----------10-12-10-12-10---------------|
--------------------------13----12----10-12-13----------------13-12-10-9-10-|
----------------------------------------------------------------------------|
----------------------------------------------------------------------------|
----------------------------------------------------------------------------|
----------------------------------------------------------------------------|

------------------------------------------------------------12-17p-12-------|
-9----9--------------------------------------------------13-----------13----|
---10---10-9-10-9-7-9-7----7--------------------------14----------------14--|
------------------------10---10-9-10-9-7~----------14-----------------------|
--------------------------------------------12h-15--------------------------|
----------------------------------------------------------------------------|

---------------------------------------------------------------------------|
---------------------------------------------------------------------------|
---------------------------------------------------------------------------|
-14------------------------------------------------------------------------|
---15p-12~-----------------------------------------------------------------|
---------------------------------------------------------------------------|

Last sweep can ruin the solo if done wrong xD

Hello guys, now I'm working on new songs, search GuitaristFrmHell for my
tabs or join my group named Neoclassical Guitarists. Good luck, have fun playing guitar 
hope you all enjoyed my work ^^

Daniel
Tap to rate this tab
# A B C D E F G H I J K L M N O P Q R S T U V W X Y Z