Song name
# A B C D E F G H I J K L M N O P Q R S T U V W X Y Z

Joe Walsh - Funk 49 tab

Artist: Joe Walsh
Song: Funk #49
Tuning: Standard

Key
 b#= Bend after note
 #b= bend after note
 /= slide up
 \= slide down
 x= Palm Mute

Intro                                    
|-----------------------------------------------|
|-----------------------------------------------|
|--7b---b7---5-----(b-7-7-7-7)------7-5-0-------|
|-----8--------------------------------7-5-0----|
|-----------------------------------------------|
|-----------------------------------------------|
(the bracketed bend is released slowly on every note)

Verse
|-------------------------------|
|---2-xx--7-5-xx-b7-7b--7--5--2-|
|---2-xx--7-5-xx-b7-7b--7--5--2-|
|---2-xx--7-5-xx-b7-7b--7--5--2-|
|---0-----0-0-----------0--0--0-|
|-------------------------------|
                             (4x)

then this scale type riff
|--------------------------------|
|-------------7------------------|
|-------------7------------------|
|-7-5---------7----7-5-----------|
|----7-5--3---7--------7-5-3-----|
|---------3/5---------------3/5~-|
                              (2x)

|--------------------------------|
|--------------9-----------------|
|--------------9-----------------|
|-9-7----------9-----9p7---------|
|----9-7--5----9--------9-7-5----|
|---------5/7---------------5/7~-|
                              (1x)

|----------------------------------|
|--------------9-----------------8-|
|--------------9-----------------7-|
|-9-7----------9-----9p7---------6-|
|----9-7--5----9--------9-7-5----7-|
|---------5/7---------------5/7--0-|
                              (1x)
Then Back to the Verse (but only 3 times)
Verse
|--------------------------------|
|-2-xxx--7-5-xxx--b7-b7--7--5--2-|
|-2-xxx--7-5-xxx--b7-b7--7--5--2-|
|-2-xxx--7-5-xxx---------7--5--2-|
|-0------0-0-------------0--0--0-|
|--------------------------------|
                             (3x)
Then back to this
|--------------------------------|
|-------------7------------------|
|-------------7------------------|
|-7-5---------7----7-5-----------|
|----7-5--3---7--------7-5-3-----|
|---------3/5---------------3/5~-|
                              (2x)

|--------------------------------|
|--------------9-----------------|
|--------------9-----------------|
|-9-7----------9-----9p7---------|
|----9-7--5----9--------9-7-5----|
|---------5/7---------------5/7~-|
                              (1x)

|----------------------------------|
|--------------9-----------------8-|
|--------------9-----------------7-|
|-9-7----------9-----9p7---------6-|
|----9-7--5----9--------9-7-5----7-|
|---------5/7---------------5/7--0-|
                              (1x)

Then this half verse thingy comes in before the long pause(drums and yelling)
|-----------------------------|
|-2-xx--7-5-xx--b7-7b--7--5b--|
|-2-xx--7-5-xx--b7-7b--7--5b--|
|-2-xx--7-5-xx--b7-7b--7--5b--|
|-0-----0-0------------0--0---|
|-----------------------------|
                           (1x)

now after the drums and yelling is this little guitar solo
|------------------------------------------------------------------|
|---2---5--b7-7b--5---10-8-----7-5-2----2-xx-x-x-7-5--b7-7b--5--2--|
|---2---5--b7-7b--5-----10-8b--7-5-2----2-xx-x-x-7-5--b7-7b--5--2--|
|---2---5--b7-7b--5------------7-5-2----2-xx-x-x-7-5--b7-7b--5--2--|
|-0-0---0---------0------------0-0-0----0-xx-x-x-0-0---------0--0--|
|------------------------------------------------------------------|

|----9999----------------|
|-2--9999-7-5--b7-7b-5-2-|
|-2--9999-7-5--b7-7b-5-2-|
|-2-------7-5--b7-7b-5-2-|
|-0-------0-0--------0-0-|
|------------------------|

|-------------------------------|
|-2-xxx--7-5-xxx-b7-7b--7--5--2-|
|-2-xxx--7-5-xxx-b7-7b--7--5--2-|
|-2-xxx--7-5-xxx-b7-7b--7--5--2-|
|-0------0-0------------0--0--0-|
|-------------------------------|
                             (2x)

|--------------------------------|
|-------------7------------------|
|-------------7------------------|
|-7-5---------7----7-5-----------|
|----7-5--3---7--------7-5-3-----|
|---------3/5---------------3/5~-|
                              (2x)

|--------------------------------|
|--------------9-----------------|
|--------------9-----------------|
|-9-7----------9-----9p7---------|
|----9-7--5----9--------9-7-5----|
|---------5/7---------------5/7~-|
                              (1x)

|----------------------------------|
|--------------9-----------------8-|
|--------------9-----------------7-|
|-9-7----------9-----9p7---------6-|
|----9-7--5----9--------9-7-5----7-|
|---------5/7---------------5/7--0-|
                              (1x)

|-------------------------------|
|-2-xxx--7-5-xxx-b7-7b--7--5--2-|
|-2-xxx--7-5-xxx-b7-7b--7--5--2-|
|-2-xxx--7-5-xxx-b7-7b--7--5--2-|
|-0------0-0------------0--0--0-|
|-------------------------------|
               (fades out slowly)

I'm pretty sure thats it enjoy
Any questions e-mail me 
callumfitzgerald@hotmail.com



Tap to rate this tab
 
# A B C D E F G H I J K L M N O P Q R S T U V W X Y Z