Song name
# A B C D E F G H I J K L M N O P Q R S T U V W X Y Z

Joey Tempest - Forgiven tab

Forgiven by Joey Tempest
*Disclaimer- he wrote the song not me!*

This is my first tab... um be nice? Also this is only the intro/riff of the song.

I put what I play for the down strokes and up strokes for the strumming pattern, 
it might help. And if these chords are wrong PLEASE tell me, I'd like to play it right!

    d   d d  d u d  d    d   d d  d u d u d d  d u
e :--------------------------------------------------------------------|
B :--------------------------------------------------------------------|
G :-9---9-9--9-9-9--7\---2---2-2--2-2-2-x------------------------------|
D :-9---9-9--9-9-9--7\---2---2-2--2-2-2-x-5-5--5-5---------------------|
A :-7---7-7--7-7-7--5\---0---0-0--0-0-0-x-5-5--5-5---------------------|
E :---------------------------------------3-3--3-3---------------------|


    d   d d  d u d  d    d   d d  d u d u  d d  d u
e :--------------------------------------------------------------------|
B :--------------------------------------------------------------------|
G :-9---9-9--9-9-9--7\---2---2-2--2-2-2-2--2-2--2-2--------------------|
D :-9---9-9--9-9-9--7\---2---2-2--2-2-2-2--2-2--2-2--------------------|
A :-7---7-7--7-7-7--5\---0---0-0--0-0-0-0--0-0--0-0--------------------|
E :--------------------------------------------------------------------|

    d   d d  d u d  d    d   d d  d u d u d d  d u
e :--------------------------------------------------------------------|
B :--------------------------------------------------------------------|
G :-9---9-9--9-9-9--7\---2---2-2--2-2-2-x------------------------------|
D :-9---9-9--9-9-9--7\---2---2-2--2-2-2-x-5-5--5-5---------------------|
A :-7---7-7--7-7-7--5\---0---0-0--0-0-0-x-5-5--5-5---------------------|
E :---------------------------------------3-3--3-3---------------------|

    d   d d  d u d  d u  d   d d  d u d u  d d  d u
e :--------------------------------------------------------------------|
B :--------------------------------------------------------------------|
G :-9---9-9--9-9-9--7-x--7---7-7--7-7-7-7--7-7--7-7--------------------|
D :-9---9-9--9-9-9--7-x--7---7-7--7-7-7-7--7-7--7-7--------------------|
A :-7---7-7--7-7-7--5-x--5---5-5--5-5-5-5--5-5--5-5--------------------|
E :--------------------------------------------------------------------|

They all have their own little bars because it's easier that way. =)
Tab by Mary Lou

Tour the United States EUROPE!
Tap to rate this tab
# A B C D E F G H I J K L M N O P Q R S T U V W X Y Z