Song name
# A B C D E F G H I J K L M N O P Q R S T U V W X Y Z

Johan Palm - All The Time In The World tab

Johan Palm
All the time in the world
My Antidote

Tabbed by LipiXx


   F                   C                  Gm                  ?
   We've all the time, time in the world. We've all the time, time in the world
E|-1-------------------0------------------3-------------------6-----------------|
B|-1-------------------1------------------3-------------------6-----------------|
G|-2-------------------0------------------3-------------------7-----------------|
D|-3-------------------2------------------5-------------------8-----------------|
A|-3-------------------3------------------5-------------------8-----------------|
E|-1-------------------0------------------3-------------------6-----------------|


Reapeat this throguh the whole song except the bridge..
The bridge is kinda wrong i think but here it is:


   ?                        ?                      Gm
   (Tick tock tick) Time's a ticking bomb, Though i shouldn't be scared
E|-5------------------------10----------------------3------------------|
B|-6------------------------11----------------------3------------------|
G|-7------------------------12----------------------3------------------|
D|-7------------------------12----------------------5------------------|
A|-5------------------------10----------------------5------------------|
E|-5------------------------10----------------------3------------------|

   ?
   I will always be there for you
E|--------6----------------------|
B|--------6----------------------|
G|--------7----------------------|
D|--------8----------------------|
A|--------8----------------------|
E|--------6----------------------|

   ?                        ?                      Gm
   (Tick tock tick) Goes the tick of the clock, Time is something we just can't stop
E|-5------------------------10----------------------3-----------------------------6-|
B|-6------------------------11----------------------3-----------------------------6-|
G|-7------------------------12----------------------3-----------------------------7-|
D|-7------------------------12----------------------5-----------------------------8-|
A|-5------------------------10----------------------5-----------------------------8-|
E|-5------------------------10----------------------3-----------------------------6-|



Lyrics:

(We've all the time, time in the world
We've all the time, time in the world)
We shouldd slow, yeah we should slow down
Girl take it easy on youself
Take it easy on yourself
And we should show, yeah we should show town
That we can leave time on the shelf
We can leave time on the shelf

For this young heart's not in a hurry
Girls there's nothing to worry about
We've all the time in the world
No I'm not in a hurry 
Girl there's no need to worry yourself
We've all the time in the world

(We've all the time, time in the world
We've all the time, time in the world)

So let it go, girl just let go
The past is long gone, it's yesterday
No chance is blown, no our chance is not blown
No need to wish our lives away

For this young heart's not in a hurry
Girls there's nothing to worry about
We've all the time in the world
No I'm not in a hurry 
Girl there's no need to worry yourself
We've all the time in the world

Tick tock tick
Time's a ticking bomb
Though I shouldn't be scared
I will always be there for you
Tick tock tick
Goes the tick of the clock
Time is something we just can't stop

Still this young heart's not in a hurry
Girls there's nothing to worry about
We've all the time in the world
No I'm not in a hurry 
Girl there's no need to worry yourself
We've all the time in the world


http://www.johan-palm.se/
Tap to rate this tab
# A B C D E F G H I J K L M N O P Q R S T U V W X Y Z