Johannes Oerding - Engel tab

Johannes Oerding - Engel (unplugged) by drumtheater

please comment!

This is partly from the unplugged ( http://www.youtube.com/watch?v=sDCcT-uam38 )  and 
partly from the official video version

standardtuning

Strophe:

e|-5--5-5-5-5-5-5-5--5--5-5-5-5-5-5-5--5--5-5-5-5-5-5-5---5---5-5-5-5-5-5-5--|
h|---3-3-3-3-3-3-3-3---3-3-3-3-3-3-3-3---3-3-3-3-3-3-3-3----3--3-3-3-3-3-3-3-|
g|---------------------------------------------------------------------------|
d|-0-------------------------------------------------------------------------|
a|---------------------------------------------------------------------------|
e|-------------------3-----------------0-------------------3-----------------|
repeat pattern one time

Ich bin schon so oft gefallen,
weil ich kein Licht gesehen hab.
Ich bin schon so oft gestolpert,
weil ein Stein im Wege lag.


e|-5--5-5-5-5-5-5-5--5--5-5-5-5-5-5-5--5---5-5-5---5--5-5-5----5--5-5-5------|
h|---3-3-3-3-3-3-3-3---3-3-3-3-3-3-3-3---3--3-3-3----3-3-3-3-----3-3-3-3-----|
g|---------------------------------------------------------------------------|
d|---------------------------------------------------------------------------|
a|--------------------0------------------------------------------------------|
e|-0------------------------------------0-----------2----------3-------------|

Doch irgendwie ist nie was schlimmeres geschehen,
bin auf den Fuessen gelandet,konnt' immer weiter geh'n.

Refrain:
D - Asus4 - G  - Em7/9----|
D - Am - G - D/F# - Em7/9-|
Denn dass da ein Engel ist,
hab ich sofort gewusst,
hat seine Fluegel gut versteckt,
damit die Welt ihn nicht entdeckt.
Denn dass da ein Engel ist,
war mir von Anfang an so klar,
denn wann immer ich einen brauchte war er da.

Strophe:
Hm - G - Hm - Em
D - G - Em7/9 - Asus4
Ich habe Grenzen ueberschritten,
wollt' sehen was dahinter lag.
Bin ueber duennes Eis gelaufen,
ohne dass es gleich zerbrach.

Refrain:
D - Asus4 - G  - Em7/9----|
D - Am - G - D/F# - Em7/9-|
Dass du ein Engel bist,
hab ich sofort gewusst,
hast deine Fluegel gut versteckt,
damit die Welt dich nicht entdeckt.
Dass du ein Engel bist,
war mir von Anfang an so klar,
denn wann immer ich einen brauchte warst du da. oooh

Bridge:
Hm - Hm/A -  Hm - Hm/A
Hm - Hm/A - G - D/F# - Em
Und irgendwo da draussen, egal ob Tag oder Nacht,
hat jeder seinen Engel, der schuetzend über ihn wacht.

Refrain:

e|-5--5-5-5-5-5-5-5---5---5-5-5-5-5-5-5----------|
h|---3-3-3-3-3-3-3-3----3--3-3-3-3-3-3-3---------|
g|-----------------------------------------------|
d|-0---------------------------------------------|
a|--------------------0--------------------------|
e|-----------------------------------------------|

Dass du ein Engel bist,
hab ich sofort gewusst,
G
Hast deine Fluegel gut versteckt,
Em
damit die Welt dich nicht entdeckt.

D - Asus4 - G  - Em7/9----|
D - Am - G - D/F# - Em7/9-|
Denn dass du ein Engel bist,
hab ich sofort gewusst,
hast deine Fluegel gut versteckt,
damit die Welt dich nicht entdeckt,
Dass du ein Engel bist,
war mir von Anfang an so klar,
denn wann immer ich einen brauchte warst du da
D - Asus4 - G  - Em7/9
Oooooh oooooh ohhhhh
Tap to rate this tab
 
# A B C D E F G H I J K L M N O P Q R S T U V W X Y Z