Song name
# A B C D E F G H I J K L M N O P Q R S T U V W X Y Z

John Cougar Mellencamp - China Girl tab

Song: China Girl
Artist: John (At the time) Cougar Melloncamp
Album: American Fool

Intro: Palm strum A
  A pm---------------|A pm-------------------|
  Riff A
E|---------2---2-----|-2---------------------|
B|---2--5--2---2--5--|-2--5--2--5--2-(2)-----|
G|---2--2---------2--|----2--2--2--2-(2)-----|
D|-------------------|-----------------------|
A|-0-----------------|-----------------------|
E|-------------------|-----------------------|

A                            F#m
China girl, I met you on the sea sand.
                        D
You touched me with your cool hand.
                     A
Your perfume's in the wind.

A                               F#m
China girl, your daddy tells you white lies
                     D
To keep you from my blue eyes.
                 A
To know me is no sin.

CHORUS:
    F#m                      A
And I won't break you, China girl,
        D                A
If you take me into your world.
F#m                      D
It's been my good fortune to find you,
A
China girl.

Stolen flowers are sweetest in the mornin'.
The Eastern sun is dawnin'.
Your silk's against my skin.

China girl, take me to your jasmine place.
Cool me with your subtle grace.
To know me is no sin.

CHORUS
And I won't break you, China girl,
If you take me into your world.
It's been my good fortune to find you,
China girl.

Interlude: w/Riff A
                         1/2 bend
E|-----5-2--(2)------|-----------------------|
B|-2-2---------------|-----------------------|
G|-------------------|--4/-(4)2-4------------|
D|-------------------|-------------4-(4)-----| x3
A|-------------------|-----------------------|
E|-------------------|-----------------------|

                         1/2 bend
E|-----5-2--(2)------|---4/(4)---2---2-------|-------------|
B|-2-2---------------|-------------5---------|-------------|
G|-------------------|-----------------------|-4-4-2-4-----|
D|-------------------|-----------------------|----------4--|
A|-------------------|-----------------------|-------------|
E|-------------------|-----------------------|-------------|

And I won't break you, China girl,
If you take me into your world.
It's been my good fortune E|--/5-4-2-2-0-0-0 find you,
China girl.
If you take me into your world.
It's been my good fortune to find you,
China girl.

Outro: W/ Riff A
                         sl
E|-----5-2--(2)------|-----------------------|
B|-2-2---------------|---------5-------------|
G|-------------------|--4/-6------6--(6)-----|
D|-------------------|-----------------------|
A|-------------------|-----------------------|
E|-------------------|-----------------------|

                         1/2 bend
E|-----5-2--(2)------|-----------------------|
B|-2-2---------------|-----------------------|
G|-------------------|--4/-(4)2-4------------|
D|-------------------|-------------4-(4)-----|
A|-------------------|-----------------------|
E|-------------------|-----------------------|
Tap to rate this tab
# A B C D E F G H I J K L M N O P Q R S T U V W X Y Z