Song name
# A B C D E F G H I J K L M N O P Q R S T U V W X Y Z

John Denver - Fly Away tab

Title: Fly Away
Artist: John Denver
tabbed by: Max Schmitz
Date: 9/16/03
E-Mail: tgopack4@juno.com

h:hammer
s:slide

Here's the song as I hear it. Enjoy...

Intro/Backdrop:

play multiple times throughout(2nd GUITAR only):

e|----------------|-----------------|-----------------|--------3-------
B|--0-------------|-0-1-1h3-1-0-----|--0--------------|----0-1-----0---
G|----2-0-----0---|-------------2---|----2-0------0---|--2-------2---0-
D|--------0-2---0-|---------------0-|--------0--2---0-|----------------
A|----------------|-----------------|-----------------|----------------
E|----------------|-----------------|-----------------|----------------


Solo 1/2/4/6(Lead GUITAR only):

e|---------------|--------|------------------------------------------
B|-0-1-1h3-1-0---|--------|-0-1-1h3-1-0------------------------------
G|-------------0-|----0-2-|-------------0----------------------------
D|---------------|0-2-----|---------------0--------------------------
A|---------------|--------|------------------------------------------
E|---------------|--------|------------------------------------------

e|---------------|--------|------------------------------------------
B|-0-1-1h3-1-0---|--------|-0-1-1h3-1-0---2s3------------------------
G|-------------0-|----0-2-|-------------0----------------------------
D|---------------|0-2-----|------------------------------------------
A|---------------|--------|------------------------------------------
E|---------------|--------|------------------------------------------

Fly Away (Lead GUITAR only)
e|------------            ---------  
B|-1-0--------            -1-0-3---
G|-----2------ X2 then,   ---------
D|------------            ---------
A|------------            ---------
E|------------            ---------




Fly Away solo(2nd GUITAR only)):


e|------------0----------
B|----0-1-3-----0--3-----
G|--2-------0------------
D|-----------------------
A|-----------------------
E|-----------------------

Solo 3/5(Lead GUITAR only):

e|---------0-----0-------------------------------------------------
B|---0-1-3---3-3---3-3-1-0-2s3-------------------------------------
G|-2---------------------------------------------------------------
D|-----------------------------------------------------------------
A|-----------------------------------------------------------------
E|-----------------------------------------------------------------

e|----------------0------------------------------------------------
B|-----0-1-3--3-3---3-3-1-0-3--------------------------------------
G|-2-2-------------------------------------------------------------
D|-----------------------------------------------------------------
A|-----------------------------------------------------------------
E|-----------------------------------------------------------------

Backdrop for solos 3/5(2nd GUITAR only):

e|-7-7-7s5-5-5-5s3-3-3-3-2-0---------------------------------------
B|---------------------------3-------------------------------------
G|-----------------------------------------------------------------
D|-----------------------------------------------------------------
A|-----------------------------------------------------------------
E|-----------------------------------------------------------------

e|-7-7-7s5-5-5-5s3-3-3-3-2-0---------------------------------------
B|---------------------------3-1-1h3-------------------------------
G|-----------------------------------------------------------------
D|-----------------------------------------------------------------
A|-----------------------------------------------------------------
E|-----------------------------------------------------------------
Tap to rate this tab
 
# A B C D E F G H I J K L M N O P Q R S T U V W X Y Z