Song name
# A B C D E F G H I J K L M N O P Q R S T U V W X Y Z

John Denver - Leaving On A Jet Plane tab

Verse:
E|--------|--1--0--------------|-----------------------|--1--0--------------|
B|--1--3--|--------1-----------|--------1--3-----1-----|--------1-----------|
G|--------|--------------0-----|--2--2--------------2--|--------------0-----|
D|--------|-----2-----------2--|--3-----------3--------|-----2-----------2--|
A|--------|--3--------3--------|-----------------------|--3--------3--------|
E|--------|--------------------|-----------------------|--------------------|
    All my   bags                 ready    go    I'm      standing    out

E|-----------------|--1--0--------------|--1--0-----------|--------------------|
B|-----1--3-----1--|--------3-----1-----|-----------1-----|--3-----------3-----|
G|--2--------------|-----0-----------0--|-----2--------2--|--------0-----------|
D|--3--------3-----|--------------------|--3-----3--------|-----0-----------0--|
A|-----------------|--3--------3--------|-----------------|--------------------|
E|-----------------|--------------------|-----------------|--3--------3--------|
    side        I     hate  wake  you      up to    good     bye

E|-----------------|--1--0--------------|--------------------|--1--0--------------|
B|--0--------1--3--|--------1-----------|-----1--3-----1-----|--------1-----1-----|
G|-----------------|--------------0--0--|--2--------------2--|-----------------0--|
D|-----0-----------|-----2--------------|--3--------3--------|-----2--------------|
A|-----------------|--3--------3--------|--------------------|--3--------3--------|
E|--3-----3--------|--------------------|--------------------|--------------------|
             But      dawn           it's  early morn  the      taxis waitin             

E|-----------------------|--1--0--------|--1--0--------|--------------------|
B|--------1--3--------1--|--------3--1--|--------3--1--|--3-----------3-----|
G|--2--2-----------2-----|--------0-----|--------------|--------0-----------|
D|--3-----------3--------|--------------|--0-----3-----|-----0-----------0--|
A|-----------------------|--3-----------|--------------|--------------------|
E|-----------------------|--------------|--------------|--3--------3--------|
    blowin   horn     Al    ready I'm      lonesome       die.


Pre-Chorus
E|-----------3--|--3-----0-----3-----|--1--0-----------|--3--1--0-----3-----|
B|--0-----------|--------------------|--------1--------|--------------------|
G|--------------|-----0-----------0--|--------------2--|-----------------0--|
D|-----0--------|--------------------|--3--------3-----|--------------------|
A|--------------|--3--------3--------|-----------------|--3--------3--------|
E|--3-----3-----|--------------------|-----------------|--------------------|
             So    kiss  me    and      smile             tell  that



E|--1--0-----------|--3--1--0-----3-----|--1--0--------|--------------------|
B|--------1--------|--------------------|--------3--1--|--3-----------3-----|
G|--------------2--|-----------------0--|--------------|--------0-----------|
D|--3--------3-----|--------------------|--0-----3-----|-----0-----------0--|
A|-----------------|--3--------3--------|--------------|--------------------|
E|-----------------|--------------------|--------------|--3--------3--------|
    wait  me          hold  like  you'll   never let me   go.


Chorus
E|-----------3--3--|--3-----0--------|--5--3--1-----3-----|-----3--0--3--|
B|--0--------------|-----------------|--------------------|--------------|
G|-----------------|-----0--------0--|-----------------2--|-----0--------|
D|-----0-----------|-----------------|--3--------3--------|--------------|
A|-----------------|--3--------3-----|--------------------|--3-----3-----|
E|--3-----3--------|-----------------|--------------------|--------------|
             Cause    leavin            on a  jet   plane       dont  when

E|--1--3--1-----0-----|--------------3-----|--1--0------|--------------------|
B|-----------------1--|--------------------|--------3--1|--3-----------3-----|
G|--------------------|--------0--------0--|--2--0------|--------0-----------|
D|--3--------3--------|-----2--------------|--------3--2|-----0-----------0--|
A|--------------------|--3--------3--------|------------|--------------------|
E|--------------------|--------------------|------------|--3--------3--------|
    I'll  back  again                Oh       babe  hate   go.


Outro
E|--3--3--|--3-----0--------|--5--3--1-----3-----|-----3--0--3--|--1--3--1-----0-----||-----
B|--------|-----------------|--------------------|--------------|-----------------1--||--1--
G|--------|-----0--------0--|-----------------2--|-----0--------|--------------------||--0--
D|--------|-----------------|--3--------3--------|--------------|--3--------3--------||--2--
A|--------|--3--------3-----|--------------------|--3-----3-----|--------------------||--3--
E|--------|-----------------|--------------------|--------------|--------------------||-----
    Cause    leavin            on a  jetplane          Don't when  I'll  back  
Tap to rate this tab
# A B C D E F G H I J K L M N O P Q R S T U V W X Y Z