Song name
# A B C D E F G H I J K L M N O P Q R S T U V W X Y Z

John Fogerty - Dont You Wish It Was True tab

Highlighted       Show chord diagrams
-------------------------------------------------------------------------------
			     Don't you wish it was true - John Fogerty
-------------------------------------------------------------------------------
Tabbed by: Max Olsson
Email: mxozzon@passagen.se


Intro:
E

Strumming pattern goes something like this:
e|---0--0---0---0---0--0---0-----------------------------|
B|---0--0---0---0---0--0---0-----------------------------|
G|-1-1--1-1-1---1-1-1--1-1-1-----------------------------|
D|-2------2-------2------2-------------------------------|
A|-------------------------------------------------------|
E|-------------------------------------------------------|

Verse:
E
I dreamed I walked in heaven just the other night

there was so much beuty so much light
B
Don't you wish it was true
E
Don't you wish it was true

An angel took my hand said don't have to hurry

Got all the time in the world dont worry
B
Don't you wish it was true
E
Don't you wish it was true


Chorus:
A                                  E
But if tomorrow everybody was your friend
                      B                                E
Anyone could take you in , no matter what or where you been
A                              E
But if tomorrow everybody had enough
                          B
The world wasn't quite so rough
                           E
Lord, don't you wish it was true


(that everything you need to know to play the whole thing)
Tap to rate this tab
# A B C D E F G H I J K L M N O P Q R S T U V W X Y Z