Song name
# A B C D E F G H I J K L M N O P Q R S T U V W X Y Z

John Frusciante - Fallout tab

-=-=-=-=-=-=-=-=-=-=-=-=-=-=-=-=-=-
John Frusciante - Fallout 2:10
-=-=-=-=-=-=-=-=-=-=-=-=-=-=-=-=-=-
L & M: John Frusciante
Track 7 From:
To Record Only Water For Ten Days
2001 Niandra Lades BMI Music.
-=-=-=-=-=-=-=-=-=-=-=-=-=-=-=-=-=-

Intro:

E|------------------------10---12--|
B|--------7--8------8--------------|
G|---------------------------------|
D|-----9-------10------------------|
A|--7------------------------------|
e|---------------------------------|

The next four parts are a Chords Breakdown:

1st:

E|------------------8-----|
B|--------------10--------|
G|-----------9------------|
D|--------7---------------|
A|------------------------|
e|------------------------|

2nd:

E|---------------7-------|
B|------------8----------|
G|----------7------------|
D|--------5--------------|
A|-----------------------|
e|-----------------------|

3rd:

E|--------------2--------|
B|-----------3-----------|
G|--------2--------------|
D|-----------------------|
A|-----5-----------------|
e|-----------------------|

4th:

E|-----------------------|
B|-----------------------|
G|----------------6------|
D|-------------7---------|
A|----------7------------|
e|-------5---------------|

Ending Chorus:

Em/G/D/C



Another Version:


E|-------------------------8---10--|-------------------------8---10--|
B|---------------------------------|---------------------------------|
G|---------9---10------10----------|---------9---10------10----------|
D|-----------------8---------------|-----------------8---------------|
A|-----12--------------------------|-----12--------------------------|
e|-10------------------------------|-10------------------------------|

E|---------------------------------|---------------------------------|
B|---------------------------------|---------------------------------|
G|---------5h7-7-------5h7-7-------|-5h7-7-------5h7-7---------------|
D|-----7---7-----------7-----------|-7-----------7-------------------|
A|-5-------------------------------|---------------------------------|
e|---------------------------------|---------------------------------|
                                                           4 times
E|-------------------------8---10--|-------------------------8---10--|
B|---------------------------------|---------------------------------|
G|---------9---10------10----------|---------9---10------10----------|
D|-----------------8---------------|-----------------8---------------|
A|-----12--------------------------|-----12--------------------------|
e|-10------------------------------|-10------------------------------|

=====================================================================

  Gm              F                 C               Bb  
E|---------5---6-----------3---5---|---------------------------------|
B|---------------------------------|-------------5-----------3-------|
G|-----7---------------5-----------|---------5-------------------3---|
D|-5---------------3---------------|-----5---------------3-----------|
A|---------------------------------|-3---------------1---------------|
e|---------------------------------|---------------------------------|


  Gm              F                 C               Gm
E|---------------------------------|---------------------------------|
B|---------------------------------|-------------5-------------------|
G|-------------3---------------2---|---------5-------------------3---|
D|---------5---------------3-------|-----5-------------------5-------|
A|-----5---------------3-----------|-3-------------------5-----------|
e|-3---------------1---------------|-----------------3---------------|


  Bb              F                 C               Gm
E|---------------------------------|---------------------------------|
B|-------------3-------------------|-------------5-------------------|
G|---------3-------------------2---|---------5-------------------3---|
D|-----3-------------------3-------|-----5-------------------5-------|
A|-1-------------------3-----------|-3-------------------5-----------|
e|-----------------1---------------|-----------------3---------------|

=====================================================================

                                                           14 times
  Dm              F                 C               Gm
  1   &   2   &   3   &   4   &     1   &   2   &   3   &   4   &
E|---------------------------------|---------------------------------|
B|---------6-----------------------|---------5-----------------------|
G|---------7---------------2-------|---------5-------3-3-3-3-----3---|
D|---------7---------------3-------|---------5-------5-5-5-5-----5---|
A|-5---5---5---------------3-------|-3---3---3-------5-5-5-5-----5---|
e|-----------------1---1---1-------|-----------------3-3-3-3-----3---|



E|-------------------------8---10--|-------------------------8---10--|
B|---------------------------------|---------------------------------|
G|---------9---10------10----------|---------9---10------10----------|
D|-----------------8---------------|-----------------8---------------|
A|-----12--------------------------|-----12--------------------------|
e|-10------------------------------|-10------------------------------|


E|-------------------------8---10--|-1-------------------------------|
B|---------------------------------|-3-------------------------------|
G|---------9---10------10----------|-2-------------------------------|
D|-----------------8---------------|-0-------------------------------|
A|-----12--------------------------|---------------------------------|
e|-10------------------------------|---------------------------------|


Lyrics:


Carried thru the road so far alone
Days glue themselves to wht is wrong
And soon the hills will swallow us up
Plans will pass her
Land on the walls is laid out
I know you're in pain
Train for the cause of staying down
It plays you out
Fall out of love again
Your dreams all end.

Chords:
 
    Em    G     D     C
E|--0--|--3--|--2--|--0--|
B|--0--|--3--|--3--|--1--|
G|--0--|--0--|--2--|--0--|
D|--2--|--0--|--0--|--2--|
A|--2--|--2--|--X--|--3--|
e|--0--|--3--|--X--|--X--|

-=-=-=-=-=-=-=-=-=-=-=-=-=--=-=-=-=-=--=-=-=-=-=-=-=-=-=-=-=-=-=--=-=-=-=-=--
Produce By John Frusciante
Mixed By Jimmy Boyled
Mixing Assisted By Brian Grimmel
Mastered By Vlado Meller At Sony Music Studio, New York.
-=-=-=-=-=-=-=-=-=-=-=-=-=--=-=-=-=-=--=-=-=-=-=-=-=-=-=-=-=-=-=--=-=-=-=-=--
Tap to rate this tab
# A B C D E F G H I J K L M N O P Q R S T U V W X Y Z