Song name
# A B C D E F G H I J K L M N O P Q R S T U V W X Y Z

John Frusciante - 666 tab

Searched the net for a accurate version of John Frusciantes song 666 but found nada.
Here goes my try,
Album: Inside Of Emptiness
I'll tab the solo if I get requests.


Part I
----------------------------------------------------------------------------|
----------------------------------------------------------------------------|
-----9--5-5--5-5-5/7--------------------------------------------------------|
--7--9--3-5--5-5-5/7--5-----------------------------------------------------|
--5--7--3-3--3-3-3/5--5-----------------------------------------------------|
--5-------------------3-----------------------------------------------------|

Part II
----------------------------------------------------------------------------|
----------------------------------------------------------------------------|
-----5--------------------------5-------------------------------------------|
--2--5--5-5--5-5-5/7--5------2--5-5-5-5/7-----------------------------------|
--2--3--5-5--5-5-5/7--5------2--3-5-5-5/7-----------------------------------|
--0-----3-3--3-3-3/5--3------0----3-3-3/7-----------------------------------|


Part III
-------------|
-------------|
-------------|
--2----------|
--2----------|
--0----------|
P.M


Part IV
--------------------------------------|
--------------------------------------|
--------------------------------------|
---7/10--7/10--9--7--5----------------|
---7/10--7/10--9--7--5----------------|
---5/8---5/8---7--5--3----------------|

Part V
--------------------------------------|
--------------------------------------|
--------------------------------------|
---7/10--7/10--7/10-------------------|
---7/10--7/10--7/10-------------------|
---5/8---5/8---5/8--------------------|


Part VI
--------------------------------------|
--------------------------------------|
--7-7--5--9-9--9-9--------------------|
--7-7--5--9-9--9-9--------------------|
--5-5--3--7-7--7-7--------------------|
--------------------------------------|

Part VII
--------------------------------------|
-------5-5----------------------------|
--3-3--5-5--2-2--2-2------------------|
--3-3--3-3--2-2--2-2------------------|
--1-1-------0-0--0-0------------------|


For those of you who can't figgure out where to place the parts i made a quick list:

Intro: Part-I x4
Verse: Part-I x2, Part-II x2
       Part-I x2, Part-II x2
Bridge:Part-III x32

Ref: PartI-v x3, Part-V x1, Part-III-----------------------------| x8
     PartI-v x3, Part-V x1, Part-III x8, Part-V x1, Part-III x32-|

Verse2: Part-I x3, Part-II x2,
	Part-I x3, Part-II x2
Bridge: Part-III x32


Ref: PartI-v x3, Part-V x1, Part-III-----------------------------| x8
     PartI-v x3, Part-V x1, Part-III x8, Part-V x1, Part-III x32-|

solo+Outro: Part-VI x3, Part-VII x2(Play this parts 5 1/2 times)
then finish of with a couple of "Part IV;s and V,s)
Tap to rate this tab
# A B C D E F G H I J K L M N O P Q R S T U V W X Y Z