Song name
# A B C D E F G H I J K L M N O P Q R S T U V W X Y Z

John Frusciante - Untitled 2 tab

-------------------------------------------------------------------------------
			     UNTITLED #2 - John Frusciante
-------------------------------------------------------------------------------
Album:Niandra Lades and Usually Just A T-shirt

Tabbed by:AJS19
Email:schmidt_x19

This is a very beautiful song by a phenomenal guitar player.

Tuning:EADGBE

Intro:

|----12------------------------------------------|
|-----------12----12------13----10---10--8-------|
|-------------------------------------------9----|
|-10---------------------------------------------|
|--------10----10----12-------8----8-----7-------|
|------------------------------------------------|


|-----------------3--------0----|
|-----5------3----1--------1----|
|---5------4------2--------0----|
|-----------------3--------2----|
|--------------------------3----|
|-5------3----------------------|


Main Part:

|-------------------6-----8--6-----8----------------------------|
|-8----10--8----10--8----10--8----10----11----11----11----11----|
|-8----10--8----10--8----10--8----10----12----12----12----12----|
|-8----10--8----10--8----10--8----10----------------------------|
|-6-----8--6-----8--6-----8--6-----8-10----------10-------------|
|------------------------------------------10----------10-------|

|----------------------------------------------------|
|----11----11----11----11----11----11----11----11----|
|----12----12----12----12----12----12----12----12----|
|-13----13-------------------------------------------|
|-------------10----10----13----13----10----10-------|
|----------------------------------------------------|

|-------------------------------------------|
|----11----11----11----11----11----11-------|
|----12----12----12----12----12----12-------|
|-13----13----------------------------------|
|-------------10----10----13----13----10----|
|-------------------------------------------|


Outro:

|----------------------------------------------------------|
|----11----11----11----11----11----11----11----11----11----|
|----12----12----12----12----12----12----12----12----12----|
|-13----13-------------------------------------------------|
|-------------10----10----13----13----10----10----10-------|
|----------------------------------------------------------|

|-------------------------------------------|
|----11----11----11----11----11----11-------|
|----12----12----12----12----12----12-------|
|-13----13----------------------------------|
|-------------10----10----13----13----10----|
|-------------------------------------------|
Repeat Outro
Tap to rate this tab
# A B C D E F G H I J K L M N O P Q R S T U V W X Y Z