Guitaretab - guitar tabs
Song name
# A B C D E F G H I J K L M N O P Q R S T U V W X Y Z

John Hartford - In Tall Buildings tab

John Hartford - In Tall Buildings

Capo on 2nd

Intro:
[Key of D]

 C	      G/B          Am	       G
------------------------------------------------------|
-----5---5--------3---3--------1---1-------0---0------|
-----5---5--------0---0--------2---2-------0---0------|
-------------------------------2---2-----------0------|
-3-3---3---3--2-2---2---2--0-0---0---0----------------|
---------------------------------------3-3---3--------|

   F           G	  C
-----------1------3----------0---0----------|
-------1---1------0----------1---1---0-1-3--|
-------2---2------0----------0---0---0-0-0--|
-------3-----------------0------------------|
----------------------0-2-3-3--3-------0-2--|
-0-1-1---1---1-3-3--3----------------3------|

X2 with a few differences

1st Verse:
[Key of D]

C          G/B       Am7      G
Someday my baby, when I am a man,
      F            G            C              G
and other's have taught me the best that they can.
C                 G/B      Am          G
They'll sell me a suit and cut off my hair
      F         G       	C          G
and send me to work in tall buildings.

and it's goodbye to the sunshine, goodbye, to the dew
Goodbye to the flowers and goodbye to you
I'm off to the subway, I must not be late
I'm going to work in tall buildings

2nd Verse
[Key change - up full step to key of E]
[ Tab from: http://www.guitaretab.com/j/john-hartford/216458.html ]
D       A/C#        Bm           A
When I retire and my life is my own,
    G           A              D          A
I made all the payments, it's time to go home.
D                 A/C#       Bm          A
and wonder what happened betwixt and between,
     G          A               D          A
When I went to work in tall buildings.

So it's goodbye to the sunshine, goodbye, to the dew
and goodbye to the flowers and goodbye to you
I'm off to the subway, I mustn't be late
I'm going to work in tall buildings

 D	     A/C#	  Bm	       A/Bm
---------2-----------2------------2------------2----|
-----3---3-------3---3--------3---3--------3---3----|
-----2---2-------2---2--------4---4--------4--------|
-0-0---0---0-------0----------4------------4--------|
-------------4-4-------4--2-2---2---2--0-0---0---0--|
----------------------------------------------------|

  G		             Em	   A
----------3-------------------------------|
------0---0---------3---3----------2-3-5--|
------0-------------0---0----0-2-3-2-0-0--|
-----------------------------2-0-0--------|
-----------------------------------0-2-4--|
--3-3---3----3-4--4---4---4--0-2-3--------|

[Repeat Chorus]

I'm just going off this video:
http://www.youtube.com/watch?v=NWg6UWFrfrE

There are differences but if you get that down,
it's not far from it.

Find me, add me.
http://www.myspace.com/BobJunt
http://www.facebook.com/BobJunt
http://www.twitter.com/BobJunt
http://www.last.fm/user/bjunt4prez
http://www.youtube.com/user/bjunt4prez
Related for In Tall Buildings tab
In Tall Buildings chords by John Hartford