Song name
# A B C D E F G H I J K L M N O P Q R S T U V W X Y Z

John Hiatt - Back On The Corner tab

-------------------------------------------------------------------------------
                          Back On The Corner  - John Hiatt
-------------------------------------------------------------------------------
Tabbed by:Peter B       
E-mail:berg1101@gmail.com

Tuning:Standard
   G                    C
e|---------------------------------------------------------------------------|
B|----0-------0----0----1------1----0----------------------------------------|
G|---------3-----3---------0-------------------------------------------------|
D|------0----------0-----------2-----------0---------------------------------|
A|----------------------3----------------------------------------------------|
E|-3----------3------------------------3-------------------------------------|

    G                 B7                               C
e|---------------------------------------------------------------------------|
B|------0--------------------------0-----------------------------------------|
G|-------------0---------2-----2--------3---2---0----------------------------|
D|---------0----------------1---------------------------2--------------------|
A|-------------------2-------------2----------------3------------------------|
E|--3------------------------------------------------------------------------|

    G              C                          A7
e|---------------------------------------------------------------------------|
B|--------0--------1-------------5---4---3----2------------------------------|
G|-----0------0--------------0-------------------0---------------------------|
D|--------0--------------2-------5---4---3----------2------------------------|
A|-----------------3--------------------------0------------------------------|
E|--3------------------------------------------------------------------------|


                            G             D7
e|---------------------------------------------------------------------------|
B|---5---4----5----1----0-------0---------3----------------------------------|
G|--------------------------0-------------5----------------------------------|
D|---5---4----5----2----0----------0----------4------------------------------|
A|----------------------------------------5----------------------------------|
E|--------------------------3------------------------------------------------|
Tap to rate this tab
# A B C D E F G H I J K L M N O P Q R S T U V W X Y Z