Song name
# A B C D E F G H I J K L M N O P Q R S T U V W X Y Z

John Hiatt - Back On The Corner tab

song: Back on the Corner
artist: John Hiatt
album: Master of Disaster

 
E||------------------------|-------------------------|-------------------------|
B||--0-------0-----1-------|--------0-------0-----1--|--L-----------------0----|
G||-------0-----0-------0--|-----0-------0-----0-----|--------0--3--2--0-------|
D||------------------------|--2----------------------|-----2-------------------|
A||----------------3-------|----------------------3--|--L--------5--4--2-------|
E||--3---------------------|--------3----------------|--------------------3----|


 
--------------------------|--------------------------||
--0-----0--1--5--3--2--1--|--L--5--4--5--4--1--1--0--||
-----0--------------------|--------------------------||
--------------5--3--2--0--|--L--5--4--5--4--0--------||
-----------3--------------|--------------------3-----||
--------------------------|-----------------------3--||




Tap to rate this tab
# A B C D E F G H I J K L M N O P Q R S T U V W X Y Z