John Holt - Fat She Fat tab

I couldn't find the lyrics to this song so I will just be posting the chords
and some other minor stuff.

F# G#m F# G#m

These chords are played through the whole song with four beats at each chord. But as
i reggae, you play off-beat which means you play between the beats.

At some points in the song, a lead guitar comes in and does this:

e|-----11-11-11-----|
B|-----12-12-12-----|
G|-----13-13-13-----|
D|-----13-13-13-----|
A|------------------|
E|------------------|

and

e|-----16-16-16-----|
B|-----16-16-16-----|
G|-----16-16-16-----|
D|------------------|
A|------------------|
E|------------------|

I have also been working on the bassline. I'm not a 100 % sure but i think it's 
like this:

G|-----------------------------------------|
D|-----------------------------------------|
A|-----------------------------------------|
E|-----2-0-2---2-2-0-2-----4-2-4---4-4-2-4-|


I hope you liked this tab but if you have any corrections please PM me here at UG or
me at hampushidenius@hotmail.com ;)
Tap to rate this tab
 
# A B C D E F G H I J K L M N O P Q R S T U V W X Y Z