Song name
# A B C D E F G H I J K L M N O P Q R S T U V W X Y Z

John Lajoie - 2 Girls 1 Cup Song tab

This transcription's a little different from the rest.

Yes, this includes the chords, but also the little riffs he adds in some places

Tuning: Standard


Chords:

C# - |----x----|
     |----5----|
     |----6----|
     |----6----|
     |----4----|
     |---------|


B -  |---------|
     |---------|
     |----4----|
     |----4----|
     |----2----|
     |---------|


A -  |---------|
     |---------|
     |----2----|
     |----2----|
     |----0----|
     |---------|


E -  |---------|
     |---------|
     |----1----|
     |----2----|
     |----2----|
     |----0----|


B7 - |----2----|
     |----0----|
     |----2----|
     |----1----|
     |----2----|
     |---------|


Run through the C#, B, A and E progression twice

|--------------|---------------------|-----------------------------|
|--------------|---------------------|-----------------------------|
|-9-8--9/11----|--9-8---9-8-6-4------|--9-8--9-9/11---9-8-9---(9)--|
|--------------|---------------------|-----------------------------|
|--------------|---------------------|-----------------------------|
|--------------|---------------------|-----------------------------|

C#m       B       A       E
How do you show someone you love
C#m       B      E
That they are the one?
C#m       B       A       E
So many ways to express love
C#m       B               E
It's hard to choose just one - how you gonna do it?

     E              A          B              C#m
Some people like to kiss, some people like to hug
     E       A                       B7            E
Some lesbians like eating each others shit out of a cup


|---------------------------|
|-------------2-4-5---------|
|------1-2-4----------------|
|-2-4-----------------------|
|---------------------------|
|---------------------------|

     E              A          B              C#m
Some people say I love you, some even shout it out
     E       A                       B7         E
Some people puke semi-digested shit into each others mouths


|----------------------------|
|-5-4-2----------------------|
|--------4-2-1---------------|
|---------------4-2---(2)----|
|----------------------------|
|----------------------------|


C#m       B       A       E
Sometimes making love is not enough
C#m       B      E
You have to step it up
C#m       B       A       E
And urinating on her face
C#m       B      E
Is not enough to say - I love you

     E              A          B              C#m
Some people like to kiss, some people like to hug
     E       A                       B7            E
Some lesbians like eating each others shit out of a cup
     E              A          B              C#m
Some people say I love you, some even shout it out
     E       A                       B7            E
Some people puke semi-digested shit into each others mouths

|-4---4---4---4---4---4---4---|
|---5---5---5---5---5---5---5-|
|-----------------------------| this is played over and over on top
|-----------------------------| of the next verse along with an E chord
|-----------------------------|
|-----------------------------|

E
She's covered in vomit and human feces
That's how I know that she needs me
She's covered in vomit and human feces
That's how I know that she needs me
She's covered in vomit and human feces
That's how I know that she needs me

A                         B7                    E Let it ring.
Shit in my mouth and I'll puke it all over your face

I love you.

So, theres actually 2 guitars. But, the parts I gave you can be played with just one.

Enjoy :)
Tap to rate this tab
 
# A B C D E F G H I J K L M N O P Q R S T U V W X Y Z