Song name
# A B C D E F G H I J K L M N O P Q R S T U V W X Y Z

John Lee Hooker - Im In The Mood tab

Artist: John Lee Hooker
Song: I'm In the Mood

Intro
 12/8

|--0-0-0-0-0-0-0-0-0-0-0-0-|-0-0-0---0-0-0-0-0-0-0-0-|
|-/5-5-5-5-5-5-5-5-5-5-5-5-|-5-5-5-8-8-8-8-8-8-8-8-8-|
|--------------------------|-------------------------|
|--------------------------|-------------------------|
|--------------------------|-------0-0-0-0-0-0-0-0-0-|
|------------0---0-0-0---0-|-0-----------------------|


|-0-0-0-0-0-0-0----------------------|----------0-0----------------------|
|-5-5-5-5-5-5-5-3-0------------------|----0-3-0-----3-0------------------|
|---------------0-0-2b4==(4)r(2)-0---|----1---0-0-0-0-0-2b4==(4)r(2)-0---|
|----------------------------------2-|-2----2--------------------------2-|
|-0-0-0-0-0-0-0--------------------0-|---------------------------------0-|
|------------------------------------|-0---------------------------------|


|---------------------------*|
|--------------------0-0--0-*|
|---------------------------*|
|-2----------2--------------*|
|------0-1-2-2--------------*|
|-0--0----------------------*|
Tap to rate this tab
# A B C D E F G H I J K L M N O P Q R S T U V W X Y Z