Song name
# A B C D E F G H I J K L M N O P Q R S T U V W X Y Z

John Lee Hooker - Riff tab

Help us improve GuitareTab! Take a short survey!
                          JOHN LEE HOOKER RIFF

Most of it sampled from 'It serves you right to suffer' from 'Tantalizing with the blues.'
But not exact, just fun to play around with.

PLAY SLOW


-------------------------------------------------------------------|
-------------------------------------------------------------------|
----------------------------------------------0--------------------|
-------0-------------------------------0--------2------------------|
---0-2----0--2---------------------0-2----2------------------------|
-----------------0--0-0--0-0--0-0-------------------0-0--0-0--0-0--|

Repeat a bunch of times with slight variations, then


-----------------7-------7---------13-(bend at same time)-15-------|
------10-(bend)-----10---------------------------------------------|
-------------------------------------------------------------------|
-------------------------------------------------------------------|
-------------------------------------------------------------------|
-------------------------------------------------------------------|

----15-13-----------------------------------5-0-0------------------|
-----------15----------8-(bend)-5-8-5---5-8-------0----------------|
----------------------------------------------------22222----------|
---------------------------------------------------------22--------|
----------------------------------------------------------22-------|
-----------------------------------------------------------0-------|


-------------------------------------------------------------------|
-------------------------------------------------------------------|
-------------------------------------------------------------------|
------0------------------------------------------------------------|
--0-2---0-2--------------------------------------------------------|
------------0--0-0---0-0-------------------------------------------|
Related for Riff tab