Song name
# A B C D E F G H I J K L M N O P Q R S T U V W X Y Z

John Lee Hooker - Boom Boom tab


----------------------------------|
----------------------------------|
--2/4---4-2-0--------1-2-2-1------|
--------------2-0-2--2-2-2-2------|
---------------------2-4-4-2------|
---------------------0-0-0-0------|

--------------------------------|
--------------------------------|
-----0-3-2-0--------1-2-2-1-----|
---2---------2-0-2--2-2-2-2-----|
--------------------2-4-4-2-----|
--------------------0-0-0-0-----|

--------------------------------|
--------------------2-3-3-2-----|
---2/4-0-2-0--------2-2-2-2-----|
-------------2-0-2--2-4-4-2-----|
--------------------0-0-0-0-----|
--------------------------------|

-------------------------------|
-------------------------------|
-----0-3-2-0--------1-2-2-1----|
---2---------2-0-2--2-2-2-2----|
--------------------2-4-4-2----|
--------------------0-0-0-0----|

------------------------------|
------------------------------|
--2/4-0-2-0-2-0--4-1-1-4------|
-----------------4-2-2-4------|
-----------------2-2-2-2------|
-----------------0-0-0-0------|

------------------------------|
------------------------------|
--------0-0----1-2-2-1--------|
----0-2-----2--2-2-2-2--------|
--2------------2-4-4-2--------|
---------------0-0-0-0--------|

boom boom
boom
----------------------------------|
----------------------------------|
--------------2/4-2-0-------------|
----------------------2-0-2-------|
----------------------------------|
----------------------------------|
(played at the same time)
-----------------------------|
-----------------------------|
--------------1-2-2-1--------|
--------------2-2-2-2--------|
--------------2-4-4-2--------|
--------------0-0-0-0--------|



----------------------------------|
----------------------------------|
--------------2/4-2-0-------------|
----------------------2-0-2-------|
----------------------------------|
----------------------------------|
(played at the same time)
-----------------------------|
-----------------------------|
--------------1-2-2-1--------|
--------------2-2-2-2--------|
--------------2-4-4-2--------|
--------------0-0-0-0--------|


----------------------------------|
----------------------------------|
--------------2/4-2-0-------------|
----------------------2-0-2-------|
----------------------------------|
----------------------------------|
(played at the same time)
-----------------------------|
--------------2-3-3-2--------|
--------------2-2-2-2--------|
--------------2-4-4-2--------|
--------------0-0-0-0--------|
--------------0-0-0-0--------|



----------------------------------|
----------------------------------|
--------------2/4-2-0-------------|
----------------------2-0-2-------|
----------------------------------|
----------------------------------|
(played at the same time)
-----------------------------|
-----------------------------|
--------------1-2-2-1--------|
--------------2-2-2-2--------|
--------------2-4-4-2--------|
--------------0-0-0-0--------|




----------------------------------|
----------------------------------|
--------------2/4-0-2-0-2-0-2-----|
----------------------------------|
----------------------------------|
----------------------------------|
(played at the same time)
-----------------------------|
-----------------------------|
--------------4-1-1-4--------|
--------------4-2-2-4--------|
--------------2-2-2-2--------|
--------------0-0-0-0--------|



------------------------------|
------------------------------|
--------0-0----1-2-2-1--------|
----0-2-----2--2-2-2-2--------|
--2------------2-4-4-2--------|
---------------0-0-0-0--------|
Tap to rate this tab
 
# A B C D E F G H I J K L M N O P Q R S T U V W X Y Z