Song name
# A B C D E F G H I J K L M N O P Q R S T U V W X Y Z

John Legend - This Time chords

Highlighted       Show chord diagrams
John Legend - This Time

Tabbed by Ole Hendriksen

There is a lot of tabs floating around, of this lovely song,
but sadly, the verse(s) are missing a chord, and the chords are wrong in general etc,
so here is my entry :) Enjoy!!!

Capo 3rd Standard EADGBe Tuning

Chords Used:

D    = xx0232
D/C# = x40200
C    = x32010
G    = 320003
Em   = 022000
Bm   = x24432
N.C  = NO CHORD
*    = Optional to play


Intro / Verse

     D   D/C#     C    G
e:---2----0-------0----3------------------------------------|
B:---3----0-------1----0------------------------------------|
G:---2----2-------0----0------------------------------------|
D:---0----x(0)----2----0------------------------------------|
A:--------4-------3----2------------------------------------|
E:---------------------3------------------------------------|
            *
Chorus:
      Em       G    D    D/C#
e:----0--------3----2----0----------------------------------|
B:----0--------0----3----0----------------------------------|
G:----0--------0----2----2----------------------------------|
D:----2--------0----0----x(0)-------------------------------|
A:----2--------2---------4----------------------------------|
E:----0---2----3--------------------------------------------|
                           *
Extended Chorus / Bridge
      Bm         G    D    D/C#
e:----2----------3----2----0----------------------------------|
B:----3----------0----3----0----------------------------------|
G:----4----------0----2----2----------------------------------|
D:----4----------0----0----x(0)-------------------------------|
A:----2----------2---------4----------------------------------|
E:--------(2)----3--------------------------------------------|
                             *



Verse 1:

D                       D/C#
     Ran into you yesterday
                          C
Memories rushed through my brain
                         G                                                D
Itís starting to hit me, now youíre not with me, I realized I made a mistake
                            D/C#                      C
I thought that I needed some space
                          C
But I just let love go to waste
                                G                                             Em
Itís so crystal clear now, that I need you here now, I got to get you back today


Chorus 1:
                    G
This time I want it all
                    D
This time I want it all
                     D/C#
Showing you all the cards
                   Em
Giving you all my heart
                           G
This time Iíll take the chance
                     D
This time Iíll be a man
                 D/C#            N.C
I can be all you need
                    D
This time is all of me

D/C#      C      G       D

Verse 2:
                     D/C#
I hit the bar every night
                        C
Looking to score a good time

Itís not like I planned it
    G
Iím left empty handed
                       D
Iím still alone in my mind
                              D/C#
Now what will it take to feel right
                     C
Can I come see you tonight?

Is there someone new now?
G
What can I do now?
                            Em
Cause I need you back by my side

Chorus 2:
                    G
This time I want it all
                    D
This time I want it all
                    D/C#
Showing you all the cards
                   Em
Giving you all my heart
                          G
This time Iíll take the chance
                     D
This time Iíll be a man
                 D/C#
I can be all you need
                    Bm
This time is all of me
                   G
Last time I wasnít sure
                  D
This time I will give you more
                      D/C#            Bm
Iím more mature, Iíll show you
                    G
Last time I didnít know
                  D
I messed up and i let you go
                      D/C#                D
I need you, donít say no

Verse 3:
                     D/C#
Lying alone in this room
                       C
All that is missing is you

Pick up the phone
G                             Em
Wonít you come home?

Chorus 3:
                    G
This time I want it all
                    D
This time I want it all
                    D/C#
Showing you all the cards
                   Em
Giving you all my heart
                          G
This time Iíll take the chance
                     D
This time Iíll be your man
                  D/C#
I can be all you need
                    D         D/C#
This time is all of me
       C
All of me
        G                               D
Yeahhhhh oooohhhhhhhh
Tap to rate this tab
# A B C D E F G H I J K L M N O P Q R S T U V W X Y Z