Song name
# A B C D E F G H I J K L M N O P Q R S T U V W X Y Z

John Martyn - Solid Air tab

                                  Solid Air                                     
                                 John Martyn
(Capo 1)

i took this from the power tab file 
http://tabs.ultimate-guitar.com/j/john_martyn/solid_air_power_tab.htm
for those who lack the program, or want a portable version of the tab, like myself

                                             |----3----|     
     Q    E  E  S  S E  E  E     E  E  E  E  Q    Q    Q     
E||---------------------------|-----2-----------------------|
B||------------------------3--|--L----------------3---------|
G||------------------------2--|--L--------------------------|
D||------------------0-----5--|--L-----------5--------------|
A||--2----x--2--0h-2----2-----|--------x--2------------2----|
E||------------------------0--|--L--------------------------|

                                          |----3----|     
  Q    E  E  S  S E  E  E     E  E  E  E  Q    Q    Q     
---------------------------|-----------------------------|
--2---------------------3--|--L--------------------------|
--2---------------------2--|--L----------------2---------|
--0---------------0-----5--|--L-----------5---------2----|
--2----x--2--0h-2----2-----|-----2--x--2-----------------|
------------------------0--|--0--------------------------|

                                            |----3----|     
    Q    E  E  S  S E  E  E     E  E  E  E  Q    Q    Q     
|----------------------------|-----------------------------|
|-------------------------3--|--L--------------------------|
|*------------------------2--|--L----------------2---------|
|*------------------0-----5--|--L-----------5---------2----|
|---2----x--2--0h-2----2-----|-----2--x--2-----------------|
|-------------------------0--|--L--------------------------|

                                         |----3----|     
  Q    E  E  S  S E  E  E     E  Q    E  Q    Q    Q     
---------------------------|----------------------------|
--0---------------------0--|--L---------------0---------|
--2---------------------2--|--L----------2--------------|
--0---------------0-----0--|--L----------0--------------|
--2----x--2--0h-2----2--2--|--L--2----2------------2----|
---------------------------|----------------------------|

                                          |----3----|     
  Q    E  E  S  S E  E  E     E  E  E  E  Q    Q    Q     
---------------------------|-----------------------------|
--0---------------------3--|--L--------------------------|
--2---------------------2--|--L----------------2---------|
--0---------------0-----5--|--L-----------5--------------|
--2----x--2--0h-2----2-----|-----2--x--2------------2----|
------------------------0--|--L--------------------------|


                                         |----3----|     
  Q    E  E  S  S E  E  E     E  Q    E  Q    Q    Q     
--0------------------------|----------------------------|
--2---------------------0--|--L-------------------------|
--2---------------------2--|--L-------------------------|
------------------0-----0--|--L----------0----2---------|
--L----x--2--0h-2----2-----|-----2----2-----------------|
---------------------------|-----------------------2----|


  E  E  E  E   E  Q    E     E  E  E  E  H           E  E  E  E  Q.     E   
------------------2----2--|-----2--------2--------|-----------4--L------4--|
-----------0h--3-------3--|-----3--------3--------|-----------2--L------2--|
--------0--------------0--|-----0--------0--------|--------2------------2--|
-----0--------------------|-----------------------|-----2------------------|
--------------------------|-----------------------|------------------------|
--0--------------------0--|-----0-----0-----------|--2------------------2--|


                                                             |----3----|     
  E  E  E  E  H           E  E  Q    Q.     E     E  Q    E  Q    Q    Q     
-----4--------4--------|-----------------------|-----2----------------------|
-----2--------2--------|--------0----L------3--|--L-------------------------|
-----2--------2--------|--------2----L------2--|--L---------------2---------|
-----------------------|-----0--------------5--|--L----------5--------------|
-----------------------|--2--------------------|----------2------------2----|
-----2-----2-----------|--------------------0--|--L-------------------------|


                                       |----3----|       
  Q    E  E  E  E  E  E     E  Q    E  Q    Q    Q       
-------------------------|-----------------------------||
--0----------0--0-----0--|--L--0-----------------------||
--2----------2--2-----2--|--L--2----------------------*||
--0----------0--0-----0--|--L--0----0--0--------------*||
--2----x--2--2--2-----2--|--L--2------------2----2-----||
-------------------------|-----------------------------||


                                       |-----3----|     
  Q    E  E  E  E  E  E     E  Q    E  Q     Q    Q     
-------------------------|-----------------------------|
--0----------0--0-----0--|--L--0-----------------------|
--2----------2--2-----2--|--L--------------------------|
--0----------0--0-----0--|--L----------0h----2---------|
--2----x--2--2--2-----2--|--L-------2------------------|
-------------------------|------------------------2----|


  E  E  E   E  E   Q    E     E  E   E  E  Q    E  E     E  E  E  E  Q    Q     
---------------------------|--------------------------|-----------4--L----4----|
---------------5p--2-------|------------2--L----------|-----------2--L----2----|
--------2h--4--------------|------------2--L----2-----|--------2----------2----|
-----2------------------4--|-----------------------4--|-----2-------------2----|
---------------------------|-----2h--4----------------|------------------------|
--2------------------------|--2-----------------------|--2---------------------|


                                        |----3----|     
  E  E  E  E  E  E  Q       E  E  E  E  Q    Q    Q     
--4--4-----4--4-----4----|-------------------2---------|
--2--2-----2--2-----2----|--------------3---------3----|
--2--2-----2--2-----2----|-----------2-----------------|
--2--2-----2--2-----2----|--------5--------------------|
-------------------------|--2--------------------------|
-----------------2-------|-----0-----------------------|


  |----3----|    |----3----|                                
  Q    Q    Q    Q    Q    Q       E  E  E  E  E  E  E  E   
-------2-------------------2----|--2--------2--------2-----|
------------3-------------------|-----3--------3--------3--|
--2--------------2--------------|--------2--------2--------|
----------------------5---------|--------------------------|
--------------------------------|--------------------------|
--------------------------------|--------------------------|


              |----3----|                                 
  E  E  E  E  Q    Q    Q       Q    E  E  S  S E  E  E   
-----2--------2--------------|---------------------------|
--------3----------3---------|--0---------------------3--|
--2--------2------------2----|--2---------------------2--|
-----------------------------|--0---------------0-----5--|
-----------------------------|--2----x--2--0h-2----2-----|
-----------------------------|------------------------0--|


             |----3----|                               
  E  Q    E  Q    Q    Q       Q    E  E  E  E  E  E   
-----2----------------------|-------------------------|
--L-------------------------|--0-------------------0--|
--L---------------2---------|--2-------------------2--|
--L----------5--------------|--0----------2--0-----0--|
----------2------------2----|--2----x--2-----------2--|
--L-------------------------|-------------------------|


              |----3----|                                                       
  E  E  E  E  Q    Q    Q       Q    E  E  E  E  E  E     E  E  Q    Q    Q     
-----------------------------|-------------------------|--------2--------------|
--L--------------------------|--0----------0--0-----3--|--L--3-------3---------|
--L--------------------------|--2----------2--2-----2--|--L--------------------|
--L--2--2--0--0--------------|--0----------0--0-----5--|--L---------------5----|
--L----------------2---------|--2----x--2--2--2--------|-----------------------|
------------------------2----|----------------------0--|--L--------------------|


  Q    E  E  E  E  E  E     E  E  E  E  E  E  E  E     Q    E  E  E  E  E  E   
-------------------------|-----------3-----3--2-----|-------------------------|
--0----------0--0-----3--|--L--------0-----0--------|--0----------0--0-----3--|
--2----------2--2-----2--|--L--------4-----4--------|--2----------2--2-----2--|
--0----------0--0-----5--|--L-----5-----------------|--0----------0--0-----5--|
--2----x--2--2--2--------|-----2--------------------|--2----x--2--2--2--------|
----------------------0--|--L-----------------------|----------------------0--|


  E  E  E  E  E  E  E  E     Q    E  E  E  E  E  E   
-----------3-----3--2-----|-------------------------|
--L--------0-----0--------|--0----------0--0-----3--|
--L--------4-----4--------|--2----------2--2-----2--|
--L-----5-----------------|--0----------0--0-----5--|
-----2--------------------|--2----x--2--2--2--------|
--L-----------------------|----------------------0--|


             |----3----|                               
  E  E  Q    Q    Q    Q       Q    E  E  E  E  E  E   
-----3--2-------------------|-------------------------|
--L----------3--------------|--0----------0--0-----3--|
--L---------------2---------|--2----------2--2-----2--|
--L--------------------5----|--0----------0--0-----5--|
----------------------------|--2----x--2--2--2--------|
--L-------------------------|----------------------0--|


             |----3----|                               
  E  E  Q    Q    Q    Q       Q    E  E  E  E  E  E   
-----3--2-------------------|-------------------------|
--L----------3--------------|--0----------0--0-----3--|
--L---------------2---------|--2----------2--2-----2--|
--L--------------------5----|--0----------0--0-----5--|
----------------------------|--2----x--2--2--2--------|
--L-------------------------|----------------------0--|


             |----3----|                               
  E  E  Q    Q    Q    Q       Q    E  E  E  E  E  E   
-----3--2-------------------|-------------------------|
--L----------3--------------|--0----------0--0-----3--|
--L---------------2---------|--2----------2--2-----2--|
--L--------------------5----|--0----------0--0-----5--|
----------------------------|--2----x--2--2--2--------|
--L-------------------------|----------------------0--|


             |----3----|                                
  E  E  Q    Q    Q    Q         Q    E  E  Q    E  E   
-----3--2-------------------||-------------------------|
--L----------3--------------||---2----------2-------2--|
--L---------------2---------||*--2----------2-------2--|
--L--------------------5----||*--0----------0-------0--|
----------------------------||---2----2--2--2-------2--|
--L-------------------------||-------------------------|


                             ^                  
  E  E  E  E  Q    Q     3x  W                  
-------------------------||--0----------------||
-----2-----2--L----2-----||--2----------------||
-----2-----2--L----2----*||--2----------------||
-----0-----0--L----0----*||--0----------------||
-----2-----2--L----2-----||--2----------------||
-------------------------||-------------------||




Duration Legend
---------------
W - whole
H - half
Q - quarter
E - 8th
S - 16th
T - 32nd
X - 64th
. - note dotted
|-n-|  - n-tuplets
Tap to rate this tab
# A B C D E F G H I J K L M N O P Q R S T U V W X Y Z