Song name
# A B C D E F G H I J K L M N O P Q R S T U V W X Y Z

John Mayer - In Repair tab

-------------------------------------------------------------------------------
			    In Repair - John Mayer
-------------------------------------------------------------------------------
Tabbed by: Dr. No
Email: wookieownsall@gmail.com

Tuning:EADGBe

Riff that leads to solo at 2:40

e|---------------------------------------------------------------------------|
B|---------------------------------------------------------------------------|
G|--5------------------------------------------------------------------------|
D|--5h7---6p5------5---------------------------------------------------------|
A|-------------8------3h5---4p3-----3--4-------------------------------------|
E|-------------------------------6-------------------------------------------|

Solo at 2:50

e|---------------------------------------------------------------------------|
B|---------------------------------------------------------------------------|
G|--9b--9-7h9p7---7~--9b--7~-------------------------------------------------|
D|--------------9------------------------------------------------------------|
A|---------------------------------------------------------------------------|
E|--------------------------------12\----------------------------------------|


e|---------------7------------------7----------------------------------------|
B|--10b-------10---10b------10-10~-----------10b--10-8-----------------------|
G|-----------------------------------------------------9b--7-7~--9-----------|
D|-----------------------------------------------------------------9---------|
A|---------------------------------------------------------------------------|
E|---------------------------------------------------------------------------|
  Rake---|               Rake---|
e|---------------------------------------------------------------------------|
B|---------------------------------------------------------------------------|
G|------9---7---9-----7--9b-7-7h10--------10-12-12b-12p10-------10-----------|
D|----x---9----------x-----------------12-----------------12-12--------------|
A|--x---------------x--------------------------------------------------------|
E|---------------------------------------------------------------------------|

e|-------------------10------10-----10---------------------------------------|
B|-----------10-13b------13b----13b---13-10h13p10----------------------------|
G|-----10-12-------------------------------------12-10b--13-12p10----12------|
D|--12------------------------------------------------------------12---12----|
A|---------------------------------------------------------------------------|
E|---------------------------------------------------------------------------|
                                                     W  1/4 
e|-------------------------10--12-12b-12p10---------13b---13b---10-------------|
B|-----------------10--13b------------------13p10--------------------13--------|
G|-10-------------------------------------------------------------------12b----|
D|----12p10--------------------------------------------------------------------|
A|---------12p10---------------------------------------------------------------|
E|-----------------------------------------------------------------------------|

e|------------------------------------12b-(12)-10~---10----12b---10----12b---|
B|------------------------------10-10-------------------10----------10-------|
G|--10-12b--10-10b-------10b-------------------------------------------------|
D|-------------------12~-----------------------------------------------------|
A|---------------------------------------------------------------------------|
E|---------------------------------------------------------------------------|
                                                             
e|--10----12b---10----13b------12b--10~~----12~~~------10~~------------------|
B|-----10----------10--------------------12-------------------10---12~~------|
G|---------------------------------------------------------------------------|
D|---------------------------------------------------------------------------|
A|---------------------------------------------------------------------------|
E|---------------------------------------------------------------------------|




| 1/4 bend the note 1/4th step up
| w  bend the note up a whole step
| /  slide up
| \  slide down
| h  hammer-on
| p  pull-off
| ~  vibrato
| +  harmonic
| x  Mute note
===============================================================================
Tap to rate this tab
# A B C D E F G H I J K L M N O P Q R S T U V W X Y Z