Song name
# A B C D E F G H I J K L M N O P Q R S T U V W X Y Z

John Mayer - Perfectly Lonely chords

Highlighted       Show chord diagrams
Perfectly Lonely - John Mayer

tabbed by julio.costa


I'am posting this AGAIN 'cause in the other tab the lyrics are messed up.
I fixed it now!


Standard Tuning

Intro: C F-C Dm G two times
e|---8/10--8/10--13-12--810--/5----8/10--8/10--13-12--810--/7--7h8p7--|
B|---8/10--8/10--13-13--810--/6----8/10--8/10--13-13--810--/8--------8|
G|--------------------------------------------------------------------|
D|--------------------------------------------------------------------|
A|--------------------------------------------------------------------|
E|--------------------------------------------------------------------|

e|---------------------------------13---------------------------------|
b|15b17r15b17-------13-13-15-15b17----15b17r15------------------------|
G|------------12/14-----------------------------14b15r14--12----12--14|
D|-----------------------------------------------------------14-------|
A|--------------------------------------------------------------------|
E|--------------------------------------------------------------------|

e|------20---------|
b|20b22----20b22r20|
G|-----------------|
D|-----------------|
A|-----------------|
E|-----------------|

Obs:In the "F-C", the C is just a passage chord, you can just play F, it's not a big deal.^^

C F-C Dm G:
Had a little love,
But I spread it thin
Falling in her arms and out again
Made a bad name for my game around town
Tore up my heart, and shut it down
Nothing to do
Nowhere to be
A simple little kind of free
Nothing to do
No one to be
And that's all I need
I'm perfectly lonely
I'm perfectly lonely
               
              Em    Am   
I'm perfectly lonely
      Dm                     
Coz I don't belong to anyone
G
Nobody belongs to me


Half intro


C F-C Dm G:
I see friends around from time to time
When their ladies let them slip away
And when they ask me how I'm doing with mine
This is always what I say
I got nothing to lose
Nowhere to be
A simple little kind of free

Em
  Nothing to do
Am
  No one to be
Dm                       G
  Is it really hard to see?

              C
I'm perfectly lonely
F               Dm     G
  I'm perfectly lonely
               Em    Am   
I'm perfectly lonely
      Dm                     
Coz I don't belong to anyone
G
Nobody belongs to me

Am
  And this is not to say
G  
  There never comes a day
F                           G          G-G#-Am
  I'll take my chances and start again
Am
  And when I look behind
G
  On all my younger times
F  
  I have to thank the wrongs 
     Fm
That led me to a love so strong

Solo: C F-C Dm G

              C
I'm perfectly lonely
F               Dm     G
  I'm perfectly lonely
               Em    Am   
I'm perfectly lonely
      Dm                     
Coz I don't belong to anyone
G
Nobody belongs to me

C F-C Dm G:
It's the way,It's the way,It's the way that I want it
It's the way,It's the way,It's the way that I want it
It's the way,It's the way,It's the way that I want it 
Tap to rate this tab
# A B C D E F G H I J K L M N O P Q R S T U V W X Y Z