Song name
# A B C D E F G H I J K L M N O P Q R S T U V W X Y Z

John Mayer - Heartbreak Warfare tab

----------------------------------------------------------------------------
			     HEARTBREAK WARFARE - John Mayer
----------------------------------------------------------------------------
Tabbed by: Eddie Campbell
Email: campb423@umn.edu

Tuning: Standard


I've seen snippets of him playing on this part of the neck and the sound
 seems right, so here ya go.  Thanks

e|-----------------15---------------------------------15--------------------|
B|------17~~~---15-----------------------------17~~------18-17-18p17~~\-----|
G|-------------------16~~~\-------------------------------------------------|
D|--------------------------------------------------------------------------|
A|--------------------------------------------------------------------------|
E|--------------------------------------------------------------------------|

               (I know these two may sound weird at first, but it is what he plays)
                ^
e|-------------17~~~--------------------------------------------------------|
B|----/17--20------------/17----------17-------------------20---17~~~-------|
G|-------------20~~~-----/17---17-19----------------------------------------|
D|--------------------------------------19p17-----------17---17-------------|
A|--------------------------------------------------------------------------|
E|--------------------------------------------------------------------------|

e|--------------------------------------------------------------------------|
B|------20---17-------------------------------------------------------------|
G|----------------19----17--------------------------------------------------|
D|---17---17---17----17-------21----19~~~~----------------------------------|
A|-------------------------17----17-----------------------------------------|
E|--------------------------------------------------------------------------|

| /  slide up
| \  slide down
| h  hammer-on
| p  pull-off
| ~  vibrato
| +  harmonic
| x  Mute note
===============================================================================
Tap to rate this tab
# A B C D E F G H I J K L M N O P Q R S T U V W X Y Z