Song name
# A B C D E F G H I J K L M N O P Q R S T U V W X Y Z

John Mayer - Crossroads tab

Crossroads - John mayer. tabbed by Jack

Figured out by ear so it may not be 100% but its close enough.

Progression - A,D,F#m.

Solo

E|---------------|------------------|
B|-5-5-----------|-5-5h7p5-5--------|
G|--7--7-5------5|--7-----7-7-5---5-|
D|--------7-5-7--|-------------7-7--|
A|---------------|------------------|
E|---------------|------------------|

E|---------------------|----5-----------------|
B|-----5-8-7-7br-5-----|-7pb-7p5--------------|
G|--5h7-----------7-5--|--------7-5-7-5-------|
D|-7-----------------7-|---------7-----7------|
A|---------------------|----------------7-5-3-|
E|---------------------|----------------------|

E|-----------------|-8--10-8--8-------------------------|
B|-----------------|-10-10-10-10-10-8-10----------------|
G|---------------5-|---------------9--------------------|
D|---------5-6/7---|---------------------9/7-9/7-5-5pb--|
A|--3h5-5/7--------|------------------------------7---7-|
E|-5---------------|------------------------------------|

E|---------------13B-13-13B----|------------------------|
B|------------10---------------|-13B-13-12B-1010--13p10-|
G|----5-7-9-12-----------------|----------------12------|
D|-5-7-------------------------|------------------------|
A|-----------------------------|------------------------|
E|-----------------------------|------------------------|

E|-12B-12-10--10h12-10-----10-|-12B-12-10--10--10h12-10----------|
B|----------13--------10-13---|----------13--13--------13--10-13-|
G|----------------------------|--------------------------12------|
D|----------------------------|----------------------------------|
A|----------------------------|----------------------------------|
E|----------------------------|----------------------------------|

E|-12B-12B-12-10-----------|-12B--------------|
B|--------------13-10-17/0-|-----13B-10--10/0-|
G|-------------------------|-----------12-----|
D|-------------------------|------------------|
A|-------------------------|------------------|
E|-------------------------|------------------|

E|----7B-5-----------------|------------------------|
B|-5-7---------------------|-------------------8-10-|
G|---------4Br-2-5B-2------|--------------5-7-9-----|
D|-------------------------|--7-5-7-7-5--7----------|
A|-------------------5-3-3-|------------------------|
E|----------------------5--|-5-----5---8------------|
Tap to rate this tab
# A B C D E F G H I J K L M N O P Q R S T U V W X Y Z