Song name
# A B C D E F G H I J K L M N O P Q R S T U V W X Y Z

John Mayer - The Heart Of Life tab

Make sure to first tune a half-step down to play this song. i am pretty sure this is 
and i was listening to the song when i figured it out.

|--------------------------------------------------------------|
|--10----10------10---12----7---7----7--10----2---2----3---3---|
|--11------11------11---11--7----7----7---7---2----2---4----4--|
|--12-12-----12-------------9-9---9-----------4-4---4--5-5---5-|
|--------------------------------------------------------------|
|--10------------10---------7-----------------2--------3-------|

|---------------------|
|-3---3----2---2------|
|-2----2---2----2-----|
|-0-0---0--2-2---2----|
|---------------------|
|-0--------0----------|
Tap to rate this tab
# A B C D E F G H I J K L M N O P Q R S T U V W X Y Z