Song name
# A B C D E F G H I J K L M N O P Q R S T U V W X Y Z

John Mayer - Gravity tab

-----------------------------------------------------------------------------

			     GRAVITY - John Mayer
-----------------------------------------------------------------------------

Tabbed by: Moxman
Email: dj.moxley@gmail.com

Tuning: Standard

Intro:

e|---------------------------------------------------------------------------|
B|-----8-8-10b12~----8-8-10b12-10-10~----------------------------------------|
G|-7\9------------7\9--------------------------------------------------------|
D|---------------------------------------------------------------------------|
A|---------------------------------------------------------------------------|
E|---------------------------------------------------------------------------|


e|---------------------------------------------------------------------------|
B|-----8-8-10b12~----8-8-10b12-10-10-8-12-8-10-------------------------------|
G|-7\9------------7\9--------------------------------------------------------|
D|---------------------------------------------------------------------------|
A|---------------------------------------------------------------------------|
E|---------------------------------------------------------------------------|

Verse:
   G                                                 C
e|-x-------------------------------------------------5-----------------------|
B|-3-------------------------------------------------5-----------------------|
G|-4-------------------------------------------------5-----------------------|X2
D|-5-------------------------------------------------5-----------------------|
A|-x-------------------------------------------------7-----------------------|
E|-3-------------------------------------------------x-----------------------|
   "Gravity"                                        "against me"
   "Gravity"                                        "wants to bring me"

   Am7                                      D7    
e|---------------------------------------------------------------------------|
B|----8---7---5---------------------------7-------7--------------------------|
G|---5-5---5---5-------------------------5-5-----5-5-------------------------|
D|--5---5---5---5-----------------------4---4---4---4------------------------|
A|-------------------------------------5-----5-5-----5-----------------------|
E|-5-------------------------------------------------------------------------|
   "I'l never know"                   "with all the love"
  
   Bmaj6               Ebmaj7         D7
e|----3----------------------------------------------------------------------|
B|---3-3------------------3------------7----------7--------------------------|
G|--3---3----------------3-3----------5-5---------5--------------------------|
D|----------------------5---5--------4---4--------4--------------------------|
A|---------------------6------------5-----5-------5--------------------------|
E|-6-------------------------------------------------------------------------|
  "Dream of ways"     "to throw it all"

Verse 2:
   G                                                 C
e|-x-------------------------------------------------5-----------------------|
B|-3-------------------------------------------------5-----------------------|
G|-4-------------------------------------------------5-----------------------|X2
D|-5-------------------------------------------------5-----------------------|
A|-x-------------------------------------------------7-----------------------|
E|-3-------------------------------------------------x-----------------------|
   "Gravity"                                        "against me"
   "Gravity"                                        "wants to bring me"


   Am7                                      D7    
e|---------------------------------------------------------------------------|
B|----8---7---5---------------------------7-------7--------------------------|
G|---5-5---5---5-------------------------5-5-----5-5-------------------------|
D|--5---5---5---5-----------------------4---4---4---4------------------------|
A|-------------------------------------5-----5-5-----5-----------------------|
E|-5-------------------------------------------------------------------------|
   "Twice as much"                   "and can't sustain"
  
   Bmaj6               Ebmaj7         D7
e|----3----------------------------------------------------------------------|
B|---3-3------------------3------------7----------7--------------------------|
G|--3---3----------------3-3----------5-5---------5--------------------------|
D|----------------------5---5--------4---4--------4--------------------------|
A|---------------------6------------5-----5-------5--------------------------|
E|-6-------------------------------------------------------------------------|
  "It's one and"     "it's gonna send me to"


Verse 3:
   G                                                 C
e|-x-------------------------------------------------5-----------------------|
B|-3-------------------------------------------------5-----------------------|
G|-4-------------------------------------------------5-----------------------|X2
D|-5-------------------------------------------------5-----------------------|
A|-x-------------------------------------------------7-----------------------|
E|-3-------------------------------------------------x-----------------------|
   "Gravity"                                        "stay the hell"
   "Gravity"                                        "has taken better"



   G                                                 C
e|-x-------------------------------------------------5-----------------------|
B|-3-------------------------------------------------5-----------------------|
G|-4-------------------------------------------------5-----------------------|
D|-5-------------------------------------------------5-----------------------|
A|-x-------------------------------------------------7-----------------------|
E|-3-------------------------------------------------x-----------------------|
   "Just keep me"                                    where the light is"
   "Just keep me"                                    where the light is"



************************************
| \   slide down
| ~   vibrato
| x   Mute note
| b   Bend
************************************
Tap to rate this tab
 
# A B C D E F G H I J K L M N O P Q R S T U V W X Y Z