Guitaretab - guitar tabs
Song name
# A B C D E F G H I J K L M N O P Q R S T U V W X Y Z

John Mayer - Gravity tab

-------------------------------------------------------------------------------
			    Gravity (Solo) - John Mayer
-------------------------------------------------------------------------------
Tabbed by: Jeffrey Figueroa


Tuning: EADGBe

e|----------------------------------------------------------------------------|
B|----------15---------------------------17----15-----------------------------|
G|---14h16--------16p14h16~------14h16------------16-14~h16p14\12-------------|
D|----------------------------------------------------------------------------|
A|----------------------------------------------------------------------------|
E|----------------------------------------------------------------------------|
[ Tab from: http://www.guitaretab.com/j/john-mayer/138777.html ]
e|-------------19-----------17----------------19----------17------------------|
B|---15h17-----------15h17------------15h17---------15h17---------------------|
G|----------------------------------------------------------------------------|
D|----------------------------------------------------------------------------|
A|----------------------------------------------------------------------------|
E|----------------------------------------------------------------------------|

e|---------19br 19br-----------------------------------------------------------|
B|--15h17-----------20---------------------------------------------------------|
G|----------------------19br 19br-16--16~-----16h19----------19---17~----------|
D|-------------------------------------------------19----19--------------------|
A|-----------------------------------------------------------------------------|
E|-----------------------------------------------------------------------------|
Related for Gravity tab
×
Gravity