Song name
# A B C D E F G H I J K L M N O P Q R S T U V W X Y Z

John Mayer - Age Of Worry tab

Artist: John Mayer
Song: Age of Worry

This is the first tab I ever made, hope you enjoy it.

E|----0--------------------|----------------------|
B|-0----3--0-----0---------|----------0-0---------|
G|------------2-----0--2---|----0--0-------0-2----|
D|------0-0-0--------------|-2---------------0-0--|
A|------------3-3-3-3-3-3--|-3-3-3-3-3-3----------|
E|-3-3-3-------------------|------------3-3-3-----|

E|----0--------------------|----------------------|
B|-0----3--0-----0---------|---1-0-------------0--|
G|------------2-----0--2---|-------2--0--0--------|
D|------0-0-0--------------|-2-----0-0-0----0-----|
A|------------3-3-3-3-3-3--|-3-3-3----------------|
E|-3-3-3-------------------|-------------3-3-3-3--|
Tap to rate this tab
# A B C D E F G H I J K L M N O P Q R S T U V W X Y Z