Song name
# A B C D E F G H I J K L M N O P Q R S T U V W X Y Z

John Mayer - Dear Marie tab

Standard Tuning [EADGBE]

Intro

|----------------------|
|-----5---------5------|
|--6----6----4----4----|
|----------------------| x2
|----------------------|
|--5------5--5------5--|

|----------------------|
|-----5---------5------|
|--6----6----7----7----|
|----------------------| 
|----------------------|    
|--5------5--5------5--|

|----------------------|
|-----5---------5------|
|--6----6----4----4----|
|----------------------| x2
|----------------------|
|--5------5--5------5--|

Verse

Dear Marie...


|----------------------|
|-----5---------5------|
|--6----6----6----6----|
|----------------------| 
|----------------------|
|--5------5--5------5--|

tell me what ...

|--------------------------|
|-----10----------10-------|
|--9-----9-----9-----9-----|
|--------------------------| 
|--------------------------|
|--10------10--10------10--|

I used to be.. 

|-----------------------|
|-----5----------5------|
|--6----6----6h7----7---|
|-----------------------| 
|-----------------------|
|--5------5--5------5---|

|----------------------|
|-----5---------5------|
|--6----6----6----6----|
|----------------------| x2 
|----------------------|
|--5------5--5------5--|

Dear Marie (second one)

|--------------------------|
|-----10----------10-------|
|--9-----9-----9-----9-----|
|--------------------------| x4 
|--------------------------|
|--10------10--10------10--|

|-----------------------|
|-----5----------5------|
|--6----6----6h7----7---|
|-----------------------| 
|-----------------------|
|--5------5--5------5---|


|----------------------|
|-----5---------5------|
|--6----6----6----6----|
|----------------------| x2 
|----------------------|
|--5------5--5------5--|

And if you're further up ...

|--------------------------|
|-----12---------10--------|
|--13----13----11----11----|
|--------------------------| 
|--------------------------|
|--12------12--10------10--|


|-----------------------|
|-----5----------5------|
|--6----6----6h7----7---|
|-----------------------| 
|-----------------------|
|--5------5--5------5---|


|----------------------|
|-----5---------5------|
|--6----6----6----6----|
|----------------------| x2 
|----------------------|
|--5------5--5------5--|

[And again for the others]

[End]

Yeah I've got my dream ...

|--------------------------|
|-----12---------10--------|
|--13----13----11----11----|
|--------------------------| 
|--------------------------|
|--12------12--10------10--|


|-----------------------|
|-----5----------5------|
|--6----6----6-----6----|
|-----------------------| 
|-----------------------|
|--5------5--5------5---|

2 times and for the last "Yeah I've got my dream..."

|-----------------------|
|----------------2------|
|----6-------4-----4----|
|--7----7---------------| 
|-----------------------|
|--5------5--5------5---|


|-----------------------|
|-----5----------5------|
|--6----6----6-----6----|
|-----------------------| 
|-----------------------|
|--5------5--5------5---|

[Harmonica part]

Just playing :

|--------|
|--5--5--|
|--6--7--| x8
|--x--x--|
|--------|
|--5--5--|


|------|
|--10--|
|--11--| 
|--x---|
|------|
|--10--|

|--------|
|--5--5--|
|--6--7--| x2
|--x--x--|
|--------|
|--5--5--|

|-----|
|--3--|
|--2--| 
|--4--| x2
|--x--|
|--2--|

|------|
|--10--|
|--11--| 
|--x---| x2
|------| 
|--10--|

And over again and finish on :

|-----|
|--5--|
|--6--| 
|--x--|
|-----|
|--5--|

[Lyrics]

Dear Marie, tell me what it was I used to be
Dear Marie, tell me what it was I used to be
And if you're further up the road can you show me what I still can't see.

Remember me, I'm the boy you used to love when we were fifteen
Remember me, I'm the boy you used to love when we were fifteen
Now I wonder what you think when you see me on the magazine.

From time to time, I go looking for your photograph online
From time to time, I go looking for your photograph online
Some county judge in Ohio is all I ever find.

Dear Marie, tell me do you still believe in me
Dear Marie, tell me do you still believe in me
Yeah I've got my dream but you've got family
Yeah I've got my dream but you've got family
Yeah I've got my dream but I guess it got away from me.
Tap to rate this tab
 
# A B C D E F G H I J K L M N O P Q R S T U V W X Y Z