Song name
# A B C D E F G H I J K L M N O P Q R S T U V W X Y Z

John Mellencamp - Rock In The Usa tab

R.O.C.K. In The USA by John Mellencamp

tabbed by: dillon1022

Tuning: standard

intro
   E       A      D
e|----------------2-----------|
B|---------2------3-----------|
G|-1--x-x--2-x-x--2-----------|
D|-2--x-x--2-x-x--0-----------|
A|-2--x-x--0-x-x--------------|
E|-0--------------------------|

verse/chorus
   E       A       D       A
e|-----------------2----------------|
B|---------2--2-2--3--3-3--2-2-2-2--|
G|-1--1-1--2--2-2--2--2-2--2-2-2-2--|
D|-2--2-2--2--2-2--0--0-0--2-2-2-2--|
A|-2--2-2--0---------------0-0-0-0--|
E|-0--------------------------------|

lead over verse/chorus (repeats several times)
e|-0-0-0-0-0-0-0-0-0-0-0-0-0-|
B|-5-5-5-3/5-5-5-5-5-5-5-5-5-|
G|---------------------------|
D|---------------------------|
A|---------------------------|
E|---------------------------|


End of verse/chorus
e|-----------------|
B|-----------------|
G|-----------------|
D|-4-4-4-4-4-4-4-4-|
A|-2-2-2-2-2-2-2-2-|
E|-----------------|

piccolo or whatever solo for guitar
e|---------------------------------------------------------------|
B|---------------------------------------------------------------| x2
G|--15-15-15--15-12-15-12-------12--15-15-15--15--12--15-12------|
D|------------------------15-15-----------------------------15---|
A|---------------------------------------------------------------|
E|---------------------------------------------------------------|

guitar solo
e|-0-0-0-3b-0-3b-0-3b-0-3b-0-0-0-3b-0-0-3b-0-0-3b-0-3b-0-0-3b-0-0-3b-0-3b---|
B|-0-0-0-3b-0-3b-0-3b-0-3b-0-0-0-3b-0-0-3b-0-0-3b-0-3b-0-0-3b-0-0-3b-0-3b---|
G|--------------------------------------------------------------------------|
D|--------------------------------------------------------------------------|
A|--------------------------------------------------------------------------|
E|--------------------------------------------------------------------------|

e|-----------|---|-----------|
B|-14b-12-12-|-x7|-----------|
G|-14b-12-12-|---|-----------|
D|-----------|---|-14-12-14~-|
A|-----------|---|-----------|
E|-----------|---|-----------|

keyboard part right after solo for guitar
e|-15-12-15-12-------12-|
B|-------------15-15----|
G|----------------------|
D|----------------------|
A|----------------------|
E|----------------------|


Tap to rate this tab
# A B C D E F G H I J K L M N O P Q R S T U V W X Y Z