Guitaretab - guitar tabs
Song name
# A B C D E F G H I J K L M N O P Q R S T U V W X Y Z

John Newton - Amazing Grace tab

----------------------------------------------------------------------------
			     AMAZING GRACE 
----------------------------------------------------------------------------
Tabbed by: Gnat94
Email: Jeremyskilgore@gmail.com

Tuning: Standard

The extra space (more than 2 dashes)between some of the notes represents a brief rest.


e|-------------------------------------------------------------------------|
B|------------------0-----0------------------------------------------------|
G|---------0-----------0-----------2--0------------------------------------|
D|---0--2----------------------------------2--0----------------------------|
A|-------------------------------------------------------------------------|
E|-------------------------------------------------------------------------|

e|-------------------------------------------------------------------------|
B|------------------0-----0----------0--3----2----1------0--1--3----0-----0|
G|---------0-----------0----------2------------------------------------0---|
D|---0--2------------------------------------------------------------------|
A|-------------------------------------------------------------------------|
E|-------------------------------------------------------------------------|
[ Tab from: http://www.guitaretab.com/j/john-newton/190913.html ]
e|-------------------------------------------------------------------------|
B|----------------------------------0-----0--------------------------------|
G|--2--0---------------------0---------0--------2--0-----------------------|
D|-----------2--0------0--2------------------------------------------------|
A|-------------------------------------------------------------------------|
E|-------------------------------------------------------------------------|


This tab is played throughout the entire song.

This tab is played on one guitar while the chords(see below)are played on another.



G         G7   C          G
Amazing Grace, how sweet the sound,
G            E minor   D     D7
That saved a wretch like me.
G           G7       C       G
I once was lost but now am found,
E minor        D      G                  Continue same chord pattern
Was blind, but now I see.                     throughout song



T'was Grace that taught my heart to fear.

And Grace, my fears relieved.

How precious did that Grace appear

The hour I first believed.



Through many dangers, toils and snares

I have already come;

'Tis Grace that brought me safe thus far

and Grace will lead me home.



The Lord has promised good to me.

His word my hope secures.

He will my shield and portion be,

As long as life endures.



Yea, when this flesh and heart shall fail,

And mortal life shall cease,

I shall possess within the veil,

A life of joy and peace.



When we've been here ten thousand years

Bright shining as the sun.

We've no less days to sing God's praise

Than when we've first begun.



Amazing Grace, how sweet the sound,

That saved a wretch like me.

I once was lost but now am found,

Was blind, but now I see