John Reuben - Nuisance tab

-------------------------------------------------------------------------------
			     NUISANCE - John Reuben
-------------------------------------------------------------------------------
Tabbed by: theandybrown
Email: andy@theandybrown.com

Tuning: Standard (Capo 4th Fret)

intro:
e|---------------------------------------------------------------------------|
B|---------------------------------------------------------------------------|
G|---------------------------------------------------------------------------|
D|---------------------------------------------------------------------------|
A|--13-9-9-13-11-8-13-9-9-13-14------13-9-9-13-11-8-13-9-9-13-14-------------|
E|---------------------------------------------------------------------------|

verse1:
e|---------------------------------------------------------------------------|
B|---------------------------------------------------------------------------|
G|---------------------------------------------------------------------------|
D|---------------------------------------------------------------------------|
A|---9--9--9-9--9--9--9-11-13---------9--9--9-9--9--9--9-13-11---------------| 4x
E|---------------------------------------------------------------------------|

chorus:
D   A   D   G

verse2:
e|---------------------------------------------------------------------------|
B|---------------------------------------------------------------------------|
G|---------------------------------------------------------------------------|
D|---------------------------------------------------------------------------|
A|---9--9--9-9--9--9--9-11-13---------9--9--9-9--9--9--9-13-11---------------| 4x
E|---------------------------------------------------------------------------|

chorus
chorus

verse3:
8 measures just drums and bass
then 8 measures...
e|---------------------------------------------------------------------------|
B|---------------------------------------------------------------------------|
G|---------------------------------------------------------------------------|
D|---------------------------------------------------------------------------|
A|---9--9--9-9--9--9--9-11-13---------9--9--9-9--9--9--9-13-11---------------| 2x
E|---------------------------------------------------------------------------|

chorus
chorus
cut-time chorus
chorus
outro (same as chorus)

************************************

| /   slide up
| \   slide down
| h   hammer-on
| p   pull-off
| ~   vibrato
| +   harmonic
| x   Mute note
| b   Bend
| pb  Pre-bend
| br  Bend release
| pbr Pre-bend release
| brb Bend release bend

************************************
Tap to rate this tab
 
# A B C D E F G H I J K L M N O P Q R S T U V W X Y Z