Song name
# A B C D E F G H I J K L M N O P Q R S T U V W X Y Z

John Scofield - A Go Go tab

Help us improve GuitareTab! Take a short survey!
Intro:
Bm-----E--Bm   4 times then this becomes the rythem.

Main lick:
|----------------------------------------------------|
|-------7--p--5-------5----7--p--5-------------------|
|------------------7-----7-----------7---4-4---------|
|----------------------------------------------------|
|----------------------------------------------------|
|----------------------------------------------------|
or this
|----------------------------------------------------|
|----------------------------------------------------|
|-------11--p--9-----9------11-----------------------|
|------------------12---12------12---9-9-------------|
|----------------------------------------------------|
|----------------------------------------------------|

then this
|----------------------------------------------------|
|-------7--p--5----5---7-----------------------------|
|-----------------7---7------------------------------|
|----------------------------------------------------|
|----------------------------------------------------|
|----------------------------------------------------|
Related for A Go Go tab