Song name
# A B C D E F G H I J K L M N O P Q R S T U V W X Y Z

John Waite - Evil tab

John Waite & Kyle Cook  Rough & Tumble

Tabbed by:BOB

Tabbed mostly from live versions on Youtube without keyboards 


Tuning:STANDARD

  
Main Riff                      Fill One        Fill Two   Fill Three       
e|------------------------3-|-----------------|--3-3-3-3--|-------3----------|
B|----------1-1--1-1--1---0-|-----------------|--1-0-1-0--|---0h1---1p0------|
G|----------2-2--2-2--0---0-|-----------------|--0-0-0-0--|-0-----------0----|
D|-------2--2-2--3-3--2---0-|---------------2-|--2-0-2-0--|------------------|
A|-------0--0-0--3-3--3---x-|-----0-2-0-----0-|--x-x-x-x--|------------------|
E|-x-0-3--------------3-0-3-|-0-3-------3-0---|--3-3-3-3--|------------------|


  Bass line (for fun)
e|---------------------------------------------------------------------------|
B|---------------------------------------------------------------------------|
G|---------------------------------------------------------------------------|
D|---------------------------------------------------------------------------|
A|-------------5-7-----------------------5-7---------------------------------|
E|-5-5-5-0-5-8-----5-5-0-0-0--5-5-5-0-5-8----5-5-----------------------------|


Verse
e|---------------------------------------------------------------------------|
B|-1----------------------------------1--------------------------------------|
G|-2----------------------------------2--------------------------------------|
D|-2----------------------------------4--------------------------------------|
A|-0-------------------------------------------------------------------------|
E|---------------------------------------------------------------------------|
   I've been watchn' you, watchn'me  Can't you tell what I'm going through 


e|---------------------------------------------------------------------------|
B|-1--------------------------------------------7-----------8-------7- 5-----|
G|-2--------------------------------------------7----------h7-------7--5-----|
D|-2--------------------------------------------7----------h9-------7--------|
A|-0-------------------------------------------------------------------------|
E|---------------------------------------------------------------------------|
  I wanna hold your fire, Wanna get you higher  Think of the things we'll do


e|--------------------999x9--------999x9--------777x7------777x7-------------|
B|--------------------777x7--------777x7--------777x7------777x7-------------|
G|--------------------777x7--------777x7--------777x7------777x7-------------|
D|--------------------779x7--------777x7--------999x9------999x9-------------|
A|---------------------------------------------------------------------------|
E|---------------------------------------------------------------------------|
   You put it out there, then you take it back  treat me like I'm your toy




   Little jam part around AM Cant tell exactly what he's doing
e|---------------------------------------------------------------------------|
B|---------------------------------------------------------------------------|
G|------------------------------------------0-h2-2-2--0-h2-2-2---------------|
D|--0-5-h7-7-7-7--0-5-h7-7-7-OR maybe-------0-h2-2-2--0-h2-2-2---------------|
A|---------------------------------------------------------------------------|
E|---------------------------------------------------------------------------|




  Bridge
e|---------------------------------------------------------------------------|
B|-----1-----1---------1-----1-----------3-----3------------1-----1----------|
G|---0-----0---0-----0-----0---0-------0-----0---3--------0-----0---0--------|
D|-3-----3---------2-----2-----------0-----0------------2-----2--------------|
A|---------------------------------------------------------------------------|
E|---------------------------------------------------------------------------|
   she's so evil  the way she walks into the room and I May not leave alive


e|---------------------------------------------------------------------------|
B|-1-----------1---1-----------1---------------------------------------------|
G|-2-----------0---2-----------0---------------------------------------------|
D|-2-----------0---2-----------0---------------------------------------------|
A|-0-----------0---0-----------0---------------------------------------------|
E|---------------------------------------------------------------------------|
   She's so evil   She's so evil
Tap to rate this tab
# A B C D E F G H I J K L M N O P Q R S T U V W X Y Z