Song name
# A B C D E F G H I J K L M N O P Q R S T U V W X Y Z

John Williams - A New Hope tab

e------3-5-6-8-6--------3-5-6---6-3-10-8----|
A--3-3---------3--3-3-------3---------------|
D-------------------------------------------|
G-------------------------------------------|
B-------------------------------------------|
E-------------------------------------------|

e------3-5-6-3-10----15---6-5-3----6-3-----3|
A--3-3------------11----8-------10-----3-3--|
D-------------------------------------------|
G-------------------------------------------|
B-------------------------------------------|
E-------------------------------------------|

Tap to rate this tab
# A B C D E F G H I J K L M N O P Q R S T U V W X Y Z