Guitaretab - guitar tabs
Song name
# A B C D E F G H I J K L M N O P Q R S T U V W X Y Z

Johnathan Rice - Acrobat tab

Song: Acrobat
Artist: As Tall As Lions
Album Lafcadio

Guitar 1: Acoustic Capo 1st Fret
Guitar 2: Electric; slight delay and chorus for dreamy effect

Key of Ab Major/F minor

Guitar 1 (Chords/Notes Relative to Capo)
Uses simple chords but throws in a Db(3rd fret) like this

E|------------------------------------------------------|
B|-0--00--00--000-- 00--00000000------------|
G|-0--00--00--00--0--00--00000000------------|
D|-00--00--00--00--2--2--33223322------------|
A|-22--33--223--2 2--2--22222222------------|
E|-33--33--33--3--3 0--000000000------------|
    G                                           Emin

Vocals (0:26)
[ Tab from: http://www.guitaretab.com/j/johnathan-rice/132146.html ]
Tonight, pretend you're an acrobat
G                                        Emin
And you're being thrown on top of the world
G                                        Emin
Do you still wish you were beautiful?
G                                       Emin
Cause you will will always be beautiful
G                                           Emin

Tonight pretend you're a cigarette
And you're being smoked by a picturesque girl
do you still with you were beautiful
cause you will, will always be beautiful

(2:08)
you will, will always be beautiful
C                                  Emin
you will, will always be beautiful
C                                  Emin
will always be beautiful  will always be beautiful
C                                   Emin
will always be beautiful  will always be beautiful
C                                   Emin

Everything pauses at (2:55) and Guitar 1 comes back in playing
C   G    Emin    Emin
 While Guitar 2 plays this little riff
E|---------------------------------------|
B|---16-16-16-16-14-13-14-13-------------|
G|----------------------------13---------| (until end of song)
D|-------------------------------15------|
A|---------------------------------------|
E|---------------------------------------|
        C                G                Emin        Emin

Tabbed by Slimebee
Comments? Bm742@drexel.edu
Related for Acrobat tab