Johnny Cash - Personal Jesus tab

-------------------------------------------------------------------------------
			     PERSONAL JESUS - Johnny Cash
-------------------------------------------------------------------------------
Tabbed by: NitroCam
Email: nitrocam@myway.com

Tuning:standard

intro riff
e|----------------------------------------------------------|
B|----------------------------------------------------------|
G|----------------------------------------------------------|
D|2-------2----2--------2----2--------2----2--------2----2--|
A|2---------------------------------------------------------|
E|0---3p0----3----0-3p0----3----0-3p0----3----0-3p0----3----|x2

riff 1
Your own...
e|-----------------|
B|-----------------|
G|-----------------|
D|2------2----2----|
A|2--------------2-|
E|0--3p0----3----0-|x6

riff 2            G       D
e|------------3--3-3-3-2-2-2-2-|
B|------------0--0-0-0-3-3-3-3-|
G|2------2----0--0-0-0-2-2-2-2-|
D|2-----------0--0-0-0-0-0-0-0-|
A|0--3p0----3-2--2-2-2---------|
E|------------3--3-3-3---------|


riff 1 again

riff 2 again

riff 1 again


riff 3    G              D                 Am        G       D
Flesh and bone...
e|3--3-3-3-3-3-3-2--2-2-2-2-2-2----0--0-0-0-0-0-0-3--3-3-3-2-2-2-2|
B|0--0-0-0-0-0-0-3--3-3-3-3-3-3----1--1-1-1-1-1-1-0--0-0-0-3-3-3-3|
G|0--0-0-0-0-0-0-2--2-2-2-2-2-2----2--2-2-2-2-2-2-0--0-0-0-2-2-2-2|
D|0--0-0-0-0-0-0-0--0-0-0-0-0-0-2--2--2-2-2-2-2-2-0--2-2-2-0-0-0-0|
A|2--2-2-2-2-2-2----------------2--0--0-0-0-0-0-0-2--2-2-2--------|
E|3--3-3-3-3-3-3----------------0-----------------3--3-3-3--------|


riff 1 again (x5)

riff 3 again

riff 1 again (x2)


riff 4    Am          G       D
      Reach out and touch faith
e|x-0-0-0-0-0-0-x-3--3-3-3-2-2-2-2|
B|x-1-1-1-1-1-1-x-0--0-0-0-3-3-3-3|
G|x-2-2-2-2-2-2-x-0--0-0-0-2-2-2-2|
D|x-2-2-2-2-2-2-x-0--2-2-2-0-0-0-0|
A|x-0-0-0-0-0-0-x-2--2-2-2--------|
E|x-------------x-3--3-3-3--------|


riff 1 (x2)

riff 4

riff 1 (x8)

riff 2

riff 1

riff 2

riff 1

riff 3

riff 1 (x5)

riff 3

riff 1 (x2)

riff 4

riff 1 (x2)

riff 4

riff 1 (x2)

riff 4

riff 1 (x2)


ending Am        G          Am
   Reach out,  and touch  faith.
e|0----0--0---3----3--3-------0---0----|
B|1----1--1---0----0--0------1---------|
G|2----2--2---0----0--0-----2----------|
D|2----2--2---0----0--0----2-----------|
A|0----0--0---2----2--2---0------------|
E|------------3----3--3----------------|


************************************

| /   slide up
| \   slide down
| h   hammer-on
| p   pull-off
| ~   vibrato
| +   harmonic
| x   Mute note
| b   Bend
| pb  Pre-bend
| br  Bend release
| pbr Pre-bend release
| brb Bend release bend

************************************
Tap to rate this tab
 
# A B C D E F G H I J K L M N O P Q R S T U V W X Y Z