Song name
# A B C D E F G H I J K L M N O P Q R S T U V W X Y Z

Johnny Cash - San Quentin tab

Johnny Cash - San Quentin

Tuning - Standard


   I have compiled what I learned from whats on the site and some 
   videos I watched and I think it sounds about right, if not its got 
   to be close.

   Chords
      C  G7
   e| 0  1
   B| 1  0
   G| 0  0
   D| 2  0
   A| 3  2
   E|    3


   CAPO 1ST FRET

 INTRO

e|--------------------------------------|
B|--------------------------------------|
G|--------------------------------------|
D|--------------------------------------|
A|---0-002-024--0--0-002-420------------|
E|--0----------0-0----------------------|
PM             ... . ... ...


 Verse 
 C                        G7             C
 San Quentin, You've been living hell to me
 C                        G7              C
 You've hosted me since Nineteen Sixty-Three
 C                        G7                  C
 I've seen 'em come and go and I've seen them die
 C              G7             C
 And long ago I stopped askin' why
 
 (Im sure you get it by now)
 
 San Quentin, I hate every inch of you.
 You've cut me and have scarred me thru an' thru.
 And I'll walk out a wiser weaker man
 Mister Congressman why can't you understand.
 San Quentin, what good do you think you do?
 Do you think I'll be different when you're through?
 You bent my heart and mind and you may my soul,
 And your stone walls turn my blood a little cold.
 San Quentin, may you rot and burn in hell.
 May your walls fall and may I live to tell.
 May all the world forget you ever stood.
 And may all the world regret you did no good.
 San Quentin, you've been livin' hell to me. 

 SOLO

 For the record I take no credit for this, Andreas Bauer
 submitted this tab and I'm just using his because it seems
 pretty much right. Good Job Andreas

e|------------------------------------------------------|
B|------------------------------------------------------|
G|------------------------------------------------------|
D|------------------------------------------------------|
A|-----0-00-0-2-20-2-4---0-----0-00-0-2-24-2-0-2-4-0----|
E|-0-0-----------------0---0-0--------------------------|

e|------------------------------------------------------|
B|------------------------------------------------------|
G|------------------------------------------------------|
D|-2-3-4-44-42-4--2-0-----------------------------------|
A|----------------------4---0-----0-00-0-2-24-2-0---0---|
E|------------------------0---0-0-----------------0---0-|
Tap to rate this tab
# A B C D E F G H I J K L M N O P Q R S T U V W X Y Z