Song name
# A B C D E F G H I J K L M N O P Q R S T U V W X Y Z

Johnny Diesel - Tip Of My Tongue tab

this ones fairly easy, just play along with the song and you'll get it


main riff
--------------------------------|
x---x-0-x---x-0-x---x-0-x---x-0-|
x---x-4-x---x-4-x---x-4-x---x-4-|
x---x-4-x---x-4-x---x-4-x---x-4-|
x-2-x---x-0-x---x---x---x-0-x---|
------------------4-------------|
bridge 1                        bridge 2
-------0-------------0-------   -------0-------2-2-2-2-2-|
-------0-------------0-------   -------0-------2-2-2-2-2-|
-----------------------1---1-   ---------------2-2-2-2-2-|
---4-----4---4-----------2---   ---4-----4---4-2-2-2-2-2-|
-----4-----4-----2-----------   -----4-----4---0-0-0-0-0-|
-2-------------0---0---------   -2-----------------------|

main riff x7
bridge 1  x1
main riff x4
bridge 1  x1
bridge 2  x1
main riff x8
bridge 1  x1
bridge 2  x2
main riff x3
bridge  1 x1
bridge  2 x1
main riff x3
bridge 1  x1
bridge 1  x2
main riff x3
bridge 1  x1
bridge 2  x1
main riff x8 fade out
Tap to rate this tab
 
# A B C D E F G H I J K L M N O P Q R S T U V W X Y Z