Johnny Hallyday - Les Portes Du Penitencier tab

Voila ma version de cette chanson de Johnny Hallyday
Pour ma part je la fait tourner en boucle et le resultat est plaisant
Elle n'est pas tres difficile et toujours sympa a jouer 
Si jamais vous voulez me soumettre vos idees, n'hesitez pas 

  Am              C               D               F
E-------0-------|-------0-------|-------2-------|-------1-------|
B----1-----1----|----1-----1----|----3-----3----|----1-----1----|
G----2--------2-|----0--------0-|----2--------2-|----2--------2-|
D----2----------|----2----------|-0--0----------|-3--3----------|
A-0-------------|-3-------------|---------------|---------------|
E---------------|---------------|---------------|---------------|

  Am              C               E               Esus4
E-------0-------|-------0-------|-------0-------|-------0-------|
B----1-----1----|----1-----1----|----0-----0----|----3-----3----|
G----2--------2-|----0--------0-|----1--------1-|----1--------1-|
D----2----------|----2----------|----2----------|----2----------|
A-0-------------|-3-------------|----2----------|----2----------|
E---------------|---------------|-0-------------|-0-------------|

 Am              C                D               F
E-------0-------|-------0-------|-------2-------|-------1-------|
B----1-----1----|----1-----1----|----3-----3----|----1-----1----|
G----2--------2-|----0--------0-|----2--------2-|----2--------2-|
D----2----------|----2----------|-0--0----------|-3--3----------|
A-0-------------|-3-------------|---------------|---------------|
E---------------|---------------|---------------|---------------|

  Am               E              Am              Esus4
E-------0-------|-------0-------|-------0-------|-------0-------|
B----1-----1----|----0-----0----|----1-----1----|----3-----3----|
G----2--------2-|----1--------1-|----2--------2-|----1--------1-|
D----2----------|----2----------|----2----------|----2----------|
A-0-------------|----2----------|-0-------------|----2----------|
E---------------|-0-------------|---------------|-0-------------|

       Am  C D         F
Les portes du penitencier
       Am      C       E Esus4 
Bientot vont se fermer
       Am        C      D       F
Et c'est la que je finirai ma vie
    Am        E            Am  Esus4
Comm'd'autres gars l'ont finie
Pour moi ma mere a donne
Sa robe de mariee
Peux-tu jamais me pardonner
Je t'ai trop fait pleurer
Le soleil n'est pas fait pour nous
C'est la nuit qu'on peut tricher
Toi qui ce soir a tout perdu
Demain tu peux gagner .

O meres, ecoutez-moi
Ne laissez jamais vos garçons
Seuls la nuit trainer dans les rues
Ils iront tout droit en prison
Toi la fille qui m'a aime
Je t'ai trop fait pleurer
Les larmes de honte que tu as versees
Il faut les oublier
Les portes du penitencier
Bientot vont se fermer
Et c'est la que je finirai ma vie
Comm'd'autres gars l'ont finie
Tap to rate this tab
 
# A B C D E F G H I J K L M N O P Q R S T U V W X Y Z