Song name
# A B C D E F G H I J K L M N O P Q R S T U V W X Y Z

Johnny Panic - Coming Up Roses chords

Highlighted       Show chord diagrams
                    Johnny Panic - Coming Up Roses

The lead guitar is below the chords. Rhythm should be easy enough to figure out.

Tuning - Half step down

Verse

A#         A               G
The age of seven emotional heaven
                E
but out of your cocoon you came
A#            A
they made you grow up
            G
it made you throw up
      E
funny thing did the same to me


Pre Chorus

A#            A                       G
but since then, the times have changed
                   E  A#             A           G
and you're not alone, as what we were we'll be again
               E
so you're not alone

Chorus

A#               A
we're coming up roses
        G
running into the life
     E                       A#
we thought we'd left behind
              A
nothing had changed
               G
yet everything's turning round
E                   G
how we used to hide
     E         F
we turned ourselves around

Verse

you said you've been losing
just what you were finding
somewhere deep on these avenues
can't seem to remember
is this May or December
how the day's run away from you

Pre Chorus

but since then, the times have changed
you're not alone
and how the sky has rearranged
so you're not alone

Chorus

Bridge

E                     G        F
the biggest killer is what you keep inside   x 3
E               G  F
the biggest killer is what you cant deny


No guitar

we couldn't get over those white cliffs of Dover
you find yourself back at beachy head
the waters inviting those currents colliding
stare into the face of death


Pre Chorus

but since then the times have changed
and you're not alone
and how the sky has rearranged
and it's wonderfull


Chorus

Solo

Chorus


Lead Guitar Parts


Pre Chorus

-----------|
--4--4--2--|
---4--4----|
-----------|
-----------|
-----------|


Bridge

----------------------|
----------------------|
------9--11--9--8-9---|  x7
---9------------------|
----------------------|
----------------------|

---------------------|
---------------------|
---8-8-8--11--9------|
-----------------9b~-|
---------------------|
---------------------|


Solo

-------------------------------------------------|
-------------------------------------------------|
-11-11-11-9-9-9-9-8-8-8-8--6-8--x3----4--6--8--9-|
-------------------------------------------------|
-------------------------------------------------|
-------------------------------------------------|


-----------------------------------------------------------------|
--------------------------------------9-9-9-11-11-11-12-12-12-14-|
-11-11-11-9-9-9-9-8-8-8-8--6-8--x3-------------------------------|
-----------------------------------------------------------------|
-----------------------------------------------------------------|
-----------------------------------------------------------------|
Tap to rate this tab
# A B C D E F G H I J K L M N O P Q R S T U V W X Y Z